Guitar Tabs Explorer
Megadeth guitar tabs for The world needs a hero

The World Needs A Hero tab


Be the first to rate

The World Needs A Hero tab by Megadeth

Guitar tabs with lyrics

Print
The World Needs A chord diagramAA Hero      Megadeth

05/16/01
Here are the three main parts to the song.
I have the structure at the bottom.
Riff b isn't perfect for the second and forth times
in the song, but it will pass.
Tabbed by Greg contact at Tnglc@aol.com


riff a

|---------|
|---------|
|---------|
|--X-X-X--|
|--X-X-X--|
|--X-X-X--|


riff b

|-------------|
|-------------|
|-4-4-4-5-2-3-|
|-4-4-4-5-2-3-|
|-2-2-2-3-0-1-|
|-------------|



riff c


|---------------------------------|
|---------------------------------|
|---------------------------------|
|---------------------------------|
|-----3-----3-----------3-5-6-5-3-|
|-4h5---4h5---4h5-3-4h5-----------|

The hammers in this riff are quick enough that you can=20
get by with out playing them.


I don't have the patience to learn the bridge to this song.
If anyone out there learns it, please add it to this.




Okay here's the structure to the song.

riff a  16 times
riff b  4 times
riff a  7 times
riff b  4 times
riff c  4 times
riff a  4 times
riff b  4 times
riff c  4 times
bridge
solo
riff b  4 times
riff c  til close

Comment this song and these guitar tabs

Do you have corrections, comments on the guitar tabs, thoughts about the song or a message to the author? Write them below.