Log in

One click and you are in

Login with Facebook Login with Google

Why sign up and log in

Guitar Tabs Explorer
Megadeth bass tabs for Symphony of destruction

Bass tabs

Symphony of Destruction by Megadeth

>From "Thrash Guitar" special from Guitar School Magazine


  Intro   TIME = 138
G:-----------------|-----------------------------------|
D:--Opera-Effects--|-----------------------------------|
A:-----------------|-----------------------------------|
E:-----------------|--1--3--1--1--0--0--0--0--0--0--0--|

               o /
               /~o (1st,2nd,3rd verses)

G:--------------------------||---|---------------------------|
D:--------------------------||*--|*--------------------------|
A:--------------------------||*--|*--------------------------|
E:--1--0--0--0--0--1--3--1--||---|---1--0--0--0--0--0--0--0--|


G:--------------------------|--------------------------|
D:--------------------------|--------------------------|
A:--------------------------|--------------------------|
E:--0--0--0--0--0--0--0--0--|--1--0--0--0--0--0--0--0--|

            (x3)
G:---------------------------|
D:--------------------------*|
A:--------------------------*|
E:--1--0--0--0--0--1--3--1---|


G:--------------------------------------------------|
D:--------------------------------------------------|
A:--------------------------------------------------|
E:--1--0--0--0--0--0--0--0--0--0--0--0--0--0--0--0--|

G:--------------------------|--------------------------|
D:--------------------------|--------------------------|
A:--------------------------|--------------------------|
E:--0--0--0--0--0--0--0--0--|--0--0--0--0--0--0--0--3--|


G:----------------------------|--------------------------|
D:----------------------------|--------------------------|
A:----------------------------|-----------------------3--|
E:--(3)--3--3--3--3--3--3--3--|--3--3--3--3--3--3--3-----|


G:---------------------------|--------------------------|
D:---------------------------|--------------------------|
A:-(3)--3--3--3--3--3--3--3--|--3--3--3--3--3--3--3-----|
E:---------------------------|-----------------------5--|


G:---------------------------|---------------------------|
D:---------------------------|---------------------------|
A:------------------------5--|-(5)--2--1--0--------------|
E:-(5)--5--5--5--5--5--5-----|---------------3--2--1--0--|


G:---------------------------|--------------------------|
D:---------------------------|--------------------------|
A:---------------------------|--------------------2--2--|
E:-(0)--0--0--0--0--2--0--0--|--3--3--3--5--5--5--------|


G:--------------------------|--------------------------|
D:--------------------------|-----------5--4-----------|
A:--3--3--3--3--3--3--3--3--|--5--5--5--------5--2-----|
E:--------------------------|--------------------------|


G:--------------------------|--------------------------|
D:--------------------------|--------------------------|
A:--------------------------|--------------------2--2--|
E:--0--0--0--0--0--2--0--0--|--3--3--3--5--5--5--------|

               1.
              |~~~~~~~~~~~~~~~~~~~~~~~~~
G:--------------------------|------------------------|
D:--------------------------|------------------------|
A:--3--3--3--3--3--3--3--3--|--5--5--5--5--5----(5)\-|
E:--------------------------|------------------------|


 ~~~~~~~~~~~~~~~~~~~~~~~~~~~~~~~~~~~~~~~~~~~~~~~~~~~~~~
G:--------------------------|---------------------------||
D:--------------------------|--------------------------*||
A:--------------------------|--------------------------*||
E:--1--0--0--0--0--0--0--0--|--1--0--0--0--0--1--3--1---||

  2.
 |~~~~~~~~~~~~~~~~~~~~~~~~
G:-------------------------|--------------------------|
D:-------------------------|--------------------------|
A:--5--5--5--5--5----(5)\--|--------------------------|
E:-------------------------|--0--0--0--0--0--2--0--0--|


G:--------------------------|--------------------------|
D:--------------------------|--------------------------|
A:--------------------2--2--|--3--3--3--3--3--3--3--3--|
E:--3--3--3--5--5--5--------|--------------------------|


G:----------------------------|--------------------------|
D:-----------5--4-------------|--------------------------|
A:--5--5--5--------5--2-------|--------------------------|
E:--------------------~~~~~~--|--0--0--0--0--0--2--0--0--|
           vibrato


G:--------------------------|--------------------------|
D:--------------------------|--------------------------|
A:--------------------2--2--|--3-----3--3--3--3--3--3--|
E:--3--3--3--5--5--5--------|--------------------------|

                         |
                   (2nd time)--0--
                    to CODA  |
G:--------------------------|--------------------------|
D:-----------5--4-----------|--------------------------|
A:--5--5--5--------5--2-----|--3--3--3--3--3--3--3--3--|
E:--------------------------|--------------------------|

               (Guitar Solo)
G:--------------------------|---------------------------|
D:--------------------------|---------------------------|
A:--5--5--5--5--5-----------|---------------------------|
E:-----------------0--0--0--|-(0)--0--0--0--0--0--0--0--|


G:--------------------------|---------------------------|
D:--------------------------|---------------------------|
A:--------------------------|---------------------------|
E:--0--0--0--0--0--0--0--3--|-(3)--3--3--3--3--3--3--3--|


G:--------------------------|---------------------------|
D:--------------------------|---------------------------|
A:-----------------------3--|-(3)--3--3--3--3--3--3--3--|
E:--3--3--3--3--3--3--3-----|---------------------------|


G:--------------------------|---------------------------|
D:--------------------------|---------------------------|
A:--3--3--3--3--3--3--3-----|---------------------------|
E:-----------------------5--|-(5)--5--5--5--5--5--5--5--|


G:--------------------------|--------------------------|
D:--------------------------|--------------------------|
A:--------------------------|--------------------------|
E:--5--5--5--5--5--5--5--0--|-(0)-0--0--0--0--0--0--0--|


G:--------------------------|---------------------------|
D:--------------------------|---------------------------|
A:--------------------------|---------------------------|
E:--0--0--0--0--0--0--0--3--|-(3)-3-3-3--3--3--3--3--3--|


G:--------------------------|---------------------------|
D:--------------------------|---------------------------|
A:-----------------------3--|-(3)--3--3--3--3--3--3--3--|
E:--3--3--3--3--3--3--3-----|---------------------------|


G:--------------------------|--------------------------|
D:--------------------------|-----------------------7--|
A:--3--3--3--3--3--3--3-----|--------------5--7--7-----|
E:-----------------------5--|-(5)-5--5--5--------------|


G:---------------------------|--------------------------|
D:-(7)--5--------------------|--------------------------|
A:---------7--6--5-----------|--------------------------|
E:------------------1--3--1--|--1--0--0--0--0--0--0--0--|

      D.S. al CODA o /
    (take 2nd ending) /`o

G:---------------------------|
D:---------------------------|
A:---------------------------|
E:--1--0--0--0--0--1--3--1---|


  |
 --0-- CODA (ending)
  |
G:-----------------------------|--------------------------||
D:-----------------------------|--------------------------||
A:--5--5--5--5--5--(5)\--------|--------------------------||
E:-----------------------------|--1--0--R--0--R--R--R--R--||
+----------------------------------------+---------------------------------+
| ____  ____             |     acanterb@vt.edu     |
| (  `--' .-'        _T_T_T_T_ | ___         __     |
| |8| O O |||||||||||||||||||[o o o o/ | /  \ |  | |\ /| | | \  / |
| (__,--.____\         `~~~`--' | | ___ |  | | \/ | |--+. \ /  |
|                    | \____| |___| |  | |___| |  |
|  Bassist for Division by Zero    |                 |
|                                     |
|  Check out the Web Page! http://sfbox.vt.edu:10021/R/rconnell/band.html |
|                                     |
+----------------------------------------+---------------------------------+

Almost there ...

Sign in to get your own page with links to favourite songs and more. You are just one click away...

Login with Facebook Login with Google