Search tabs and chords

Search for song, artist or band

Log in

One click and you are in

Login with Facebook Login with Google

Why sign up and log in

Guitar Tabs Explorer
Megadeth bass tabs for Rust in peace   polaris

Bass tabs

-------------------------------------------------------------------------------
	Rust In Peace...Polaris - Megadeth
-------------------------------------------------------------------------------

Tabbed By : Alex
e-mail: Majorrajor221

Tuning: Standard
Fig. 1
G|------------------------------------------|
D|------------------------------------------|
A|---------3---0-2-3---0-2----------3-3-3-3-|
E|-2-2-2-2---2-------2------2-2-2-2---------|


Fig. 2
G|------------------------------------------------------------------------|
D|-----4-----------4---------------------------4-----------4--------------|
A|-------3-2-3-------3-2--3---0-2-3---0-2--------3-2-3-------3-2--3-3-3-3-|
E|-2-2---_____-2-2----------2-------2------2-2---_____-2-2----------------|


Fig. 3
G|----------------------------------------------------------------------------|
D|-----4-----------4---------------------------4-----------4------------------|
A|-------3-2-3-------3-2--3---0-2-3---0-2--------3-2-3-------3-2--3-3-3-3-3-3-|
E|-2-2---_____-2-2----------2-------2------2-2---_____-2-2--------------------|


Fig. 4
G|-------|
D|-------|
A|-2-----|
E|---1-1-|

Fig. 5
G|-----------------------|
D|-----------------------|
A|---0-2-3-2h3h2---------|
E|-2-------------5-2-0-2-|

To play song:
Fig. 1 X2
Fig. 2
Fig. 3
Fig. 4
Fig. 5 X 8
|

___ triplet
| /  slide up
|   slide down
| h  hammer-on
| p  pull-off
| ~  vibrato
| +  harmonic
| x  Mute note

Almost there ...

Sign in to get your own page with links to favourite songs and more. You are just one click away...

Login with Facebook Login with Google