Log in

One click and you are in

Login with Facebook Login with Google

Why sign up and log in

Guitar Tabs Explorer
Megadeth bass tabs for Public enemy no 1

Bass tabs

  • Difficulty: Beginner
Key: A


Tuning: Drop D (D A D G)

⚠ For 4 string, original is played on 5. ⚠

🤘 Intro:

G|----------------|--------------|----------------|--------------|
D|-------------7--|-(7)----------|-------------7--|-(7)----------|
A|-------------5--|-(5)----------|-------------5--|-(5)----------|
D|-3-----2--------|--------------|-3-----2--------|--------------|

G|----------------|--------------|----------------|--------------|
D|-------------7--|-(7)----------|----------------|--------------|
A|-------------5--|-(5)----------|----------------|--------------|
D|-3-----2--------|--------------|-3-----2-----0--|-(0)----------|

G|-----------------|-----------------|-----------------|-----------------|-----------------|
D|-----------------|-----------------|-----------------|-----------------|-----------------|
A|-----5-3-5-3-5-0-|---0-0-0-0-0-0-0-|-0-0-0-0-0-0-0-0-|-0-0-0-0-0-0-0-0-|-0-0-0-0-0-3---0-|
D|-----------------|-----------------|-----------------|-----------------|-----------------|

G|-----------------|-----------------|-----------------|-----------------|
D|-----------------|-----------------|-----------------|-----------------|
A|---0-0-0-0-0-0-0-|-0-0-0-0-0-0-0-0-|-0-0-0-0-0-0-0-0-|-0-0-5-3-5-3-5-0-|
D|-----------------|-----------------|-----------------|-----------------|

G|-----------------|-----------------|-----------------|-----------------|
D|-----------------|-----------------|-----------------|-----------------|
A|---0-0-0-0-0-0-0-|-0-0-0-0-0-0-0-0-|-0-0-0-0-0-0-0-0-|-0-0-0-0-0-3---0-|
D|-----------------|-----------------|-----------------|-----------------|

G|-----------------|-----------------|-----------------|-----------------|
D|-----------------|-------------0-2/|-7-7-7-7-7-7-7-7-|-7-7-------------|
A|---0-0-0-0-0-0-0-|-0-0-0-0-0-0-----|-----------------|-----5-3-5-3-5-0-|
D|-----------------|-----------------|-----------------|-----------------|


🤘 Verse :

G|--------------------|--------------------|--------------------|--------------------|
D|--------------------|--------------------|--------------------|--------------------|
A|---00-0-00-0-0000-0-|---00-0-00-0-0000-0-|---00-0-00-0-0000-0-|---00-0-00-0-0000-0-|
D|--------------------|--------------------|--------------------|--------------------|

G|--------------------|--------------------|--------------------|-----------------|
D|--------------------|--------------------|--------------------|-----------------|
A|---00-0-00-0-0000-0-|---00-0-00-0-0000-0-|---00-0-00-0-0000-0-|---0-5-3-5-3-5-0-|
D|--------------------|--------------------|--------------------|-----------------|

G|--------------------|--------------------|--------------------|-----------------|
D|--------------------|--------------------|--------------------|-----------------|
A|---00-0-00-0-0000---|--------------------|--------------------|-----5-3-5-3-5-0-|
D|------------------3-|---33-3-33-3-3333-4-|---44-4-44-4-4444-5-|--55-------------|

G|--------------------|--------------------|--------------------|-----------------|
D|--------------------|--------------------|--------------------|-----------------|
A|---00-0-00-0-0000---|--------------------|--------------------|-----5-3-5-3-5---|
D|------------------3-|---33-3-33-3-3333-4-|---44-4-44-4-4444-5-|--55-----------3-|


🤘 Chorus:

G|-----------------|------------------|-----------------|------------------|
D|-----------------|-----------.------|-----------------|-----------.------|
A|-----------------|-----------3------|-----------------|-----------3------|
D|---3-3-2---2-2-0-|---0-0-0-0------3-|---3-3-2---2-2-0-|---0-0-0-0------3-|
"Roses on your grave "

G|-----------------|------------------|-----------------|------------------|-----------------|
D|-----------------|-----------.------|-----------------|------------------|-----------------|
A|-----------------|-----------3---/8-|---8-8-7---7-7-5-|-(5)--------------|-(5)-5-3-5-3-5-0-|
D|---3-3-2---2-2-0-|---0-0-0-0--------|-----------------|------------------|-----------------|

G|-----------------|------------------|-----------------|-----------------|
D|-----------------|------------------|-----------------|-----------------|
A|---0-0-0---------|-----------3----0-|---0-0-0---------|-----------5-3-0-|
D|---------3-3-3-3-|-4-4-4-4-5--------|---------3-3-3-3-|-4-4-4-4-5-------|
"I'm invincible "

G|-----------------|------------------|-----------------|-----------------|
D|-----------------|------------------|---------3-3-3-3-|-4-4-------------|
A|---0-0-0---------|-----------3----0-|---0-0-0---------|-----5-3-5-3-5-0-|
D|---------3-3-3-3-|-4-4-4-4-5--------|-----------------|-----------------|

G|-----------------|------------------|-----------------|-----------------|
D|-----------------|------------------|-----------------|-----------------|
A|---0-0-0---------|-----------3----0-|---0-0-0---------|-----------5-3-0-|
D|---------3-3-3-3-|-4-4-4-4-5--------|---------3-3-3-3-|-4-4-4-4-5-------|
"I'm invincible "

G|-----------------|------------------|-----------------|-----------------|
D|-----------------|------------------|-----------------|-----------------|
A|---0-0-0---------|-----------3----0-|---0-0-0---------|-----5-3-5-3-5-0-|
D|---------3-3-3-3-|-4-4-4-4-5--------|---------3-3-3-3-|-4-4-------------|


🤘 Solo 1:

G|--------------------|--------------------|--------------------|--------------------|
D|--------------------|--------------------|--------------------|--------------------|
A|---00-0-00-0-0000-0-|---00-0-00-0-0000-0-|---00-0-00-0-0000-0-|---00-0-00-0-0-3--0-|
D|--------------------|--------------------|--------------------|--------------------|

G|--------------------|--------------------|--------------------|-----------------|
D|--------------------|-------------0--2/7-|---77-7-77-7-7777-7-|-----------------|
A|---00-0-00-0-0000-0-|---00-0-00-0--------|--------------------|-----5-3-5-3-5-0-|
D|--------------------|--------------------|--------------------|-----------------|

G|--------------------|--------------------|--------------------|-----------------|
D|--------------------|--------------------|--------------------|-----------------|
A|---00-0-00-0-0000---|--------------------|--------------------|-----5-3-5-3-5-0-|
D|------------------3-|---33-3-33-3-3333-4-|---44-4-44-4-4444-5-|--55-------------|

G|--------------------|--------------------|--------------------|-----------------|
D|--------------------|--------------------|--------------------|-----------------|
A|---00-0-00-0-0000---|--------------------|--------------------|-----5-3-5-3-5---|
D|------------------3-|---33-3-33-3-3333-4-|---44-4-44-4-4444-5-|--55-----------3-|

G|--------------------|--------------------|--------------------|--------------------|
D|--------------------|--------------------|--------------------|--------------------|
A|---00-0-00-0-0000-0-|---00-0-00-0-0000-0-|---00-0-00-0-0000-0-|---00-0-00-0-0000-0-|
D|--------------------|--------------------|--------------------|--------------------|

G|--------------------|--------------------|--------------------|-----------------|
D|--------------------|--------------------|--------------------|-----------------|
A|---00-0-00-0-0000-0-|---00-0-00-0-0000-0-|---00-0-00-0-0000-0-|---0-5-3-5-3-5-0-|
D|--------------------|--------------------|--------------------|-----------------|

G|--------------------|--------------------|--------------------|-----------------|
D|--------------------|--------------------|--------------------|-----------------|
A|---00-0-00-0-0000---|--------------------|--------------------|-----5-3-5-3-5-0-|
D|------------------3-|---33-3-33-3-3333-4-|---44-4-44-4-4444-5-|--55-------------|

G|--------------------|--------------------|--------------------|-----------------|
D|--------------------|--------------------|--------------------|-----------------|
A|---00-0-00-0-0000---|--------------------|--------------------|-----5-3-5-3-5---|
D|------------------3-|---33-3-33-3-3333-4-|---44-4-44-4-4444-5-|--55-----------3-|


🤘 Chorus:

G|-----------------|------------------|-----------------|------------------|
D|-----------------|-----------.------|-----------------|-----------.------|
A|-----------------|-----------3------|-----------------|-----------3------|
D|---3-3-2---2-2-0-|---0-0-0-0------3-|---3-3-2---2-2-0-|---0-0-0-0------3-|
"Roses on your grave "

G|-----------------|------------------|-----------------|------------------|-----------------|
D|-----------------|-----------.------|-----------------|------------------|-----------------|
A|-----------------|-----------3---/8-|---8-8-7---7-7-5-|-(5)--------------|-(5)-5-3-5-3-5-0-|
D|---3-3-2---2-2-0-|---0-0-0-0--------|-----------------|------------------|-----------------|

G|-----------------|------------------|-----------------|-----------------|
D|-----------------|------------------|-----------------|-----------------|
A|---0-0-0---------|-----------3----0-|---0-0-0---------|-----------5-3-0-|
D|---------3-3-3-3-|-4-4-4-4-5--------|---------3-3-3-3-|-4-4-4-4-5-------|
"I'm invincible "

G|-----------------|------------------|-----------------|-----------------|
D|-----------------|------------------|---------3-3-3-3-|-4-4-------------|
A|---0-0-0---------|-----------3----0-|---0-0-0---------|-----5-3-5-3-5-0-|
D|---------3-3-3-3-|-4-4-4-4-5--------|-----------------|-----------------|

G|-----------------|------------------|-----------------|-----------------|
D|-----------------|------------------|-----------------|-----------------|
A|---0-0-0---------|-----------3----0-|---0-0-0---------|-----------5-3-0-|
D|---------3-3-3-3-|-4-4-4-4-5--------|---------3-3-3-3-|-4-4-4-4-5-------|
"I'm unbeatable "

G|-----------------|------------------|-----------------|-----------------|
D|-----------------|------------------|-----------------|-----------------|
A|---0-0-0---------|-----------3----0-|---0-0-0---------|-----5-3-5-3-5-0-|
D|---------3-3-3-3-|-4-4-4-4-5--------|---------3-3-3-3-|-4-4-------------|


🤘 Solo 2:

G|-----------------|------------------|-----------------|-----------------|
D|-----------------|------------------|-----------------|-----------------|
A|---0-0-0---------|-----------0-1-0--|---0-0-0---------|-----------0-1-0-|
D|---------3-3-3-3-|-5-5-5-5-2--------|---------3-3-3-3-|-5-5-5-5-2-------|

G|-----------------|------------------|-----------------|-----------------|
D|-----------------|------------------|-----------------|-----------------|
A|---0-0-0---------|-----------0-1-0--|---0-0-0---------|-----------0-1---|
D|---------3-3-3-3-|-5-5-5-5-2--------|---------3-3-3-3-|-5-5-5-5-2-----2-|

G|-------------------|------------------|-------------------|------------------|
D|-------------------|----------------2-|-------------------|----------------2-|
A|----------3-33-3---|----------2-------|----------3-33-3---|----------2-------|
D|---2-22-2----------|---0-00-0---2-3---|---2-22-2----------|---0-00-0---2-3---|

G|-------------------|------------------|-------------------|-------------------|
D|-------------------|----------------2-|-------------------|-------------------|
A|----------3-33-3---|----------2-------|----------3-33-3---|-5-5-x-55-5-x5-5-5-|
D|---2-22-2----------|---0-00-0---2-3---|---2-22-2----------|-------------------|

G|------------------|-------------------|-------------------|-------------------|-------------------|
D|------------------|-------------------|------rest---------|--------rest-------|-------rest--------|
A|-x5-5-5-0-5-------|-------------------|-------------------|-------------------|-------------------|
D|------------------|-5-\\\0------------|-------------------|-------------------|-------------------|

G|-------------------|------------------|-------------------|-----------------|
D|-7-777777777777777-|-7-77777777777777-|-7-777777777777777-|-7---------------|
A|-------------------|------------------|-------------------|-----5-3-5-3-5-0-|
D|-------------------|------------------|-------------------|-----------------|


🤘 Chorus:

G|-----------------|------------------|-----------------|-----------------|
D|-----------------|------------------|-----------------|-----------------|
A|---0-0-0---------|-----------3----0-|---0-0-0---------|-----------5-3-0-|
D|---------3-3-3-3-|-4-4-4-4-5--------|---------3-3-3-3-|-4-4-4-4-5-------|

G|-----------------|------------------|-----------------|-----------------|
D|-----------------|---------------/7-|---7-7-7---------|-----------------|
A|---0-0-0---------|-----------3------|---------8-8-8-8-|-5-5-5-3-5-3-5-0-|
D|---------3-3-3-3-|-4-4-4-4-5--------|-----------------|-----------------|

G|-----------------|------------------|-----------------|-----------------|
D|-----------------|------------------|-----------------|-----------------|
A|---0-0-0---------|-----------3----0-|---0-0-0---------|-----------5-3-0-|
D|---------3-3-3-3-|-4-4-4-4-5--------|---------3-3-3-3-|-4-4-4-4-5-------|

G|-----------------|------------------|-----------------|-----------------|
D|-----------------|---------------/7-|---7-7-7---------|-----------------|
A|---0-0-0---------|-----------3------|---------8-8-8-8-|-5-5-5-3-5-3-5-0-|
D|---------3-3-3-3-|-4-4-4-4-5--------|-----------------|-----------------|

🤘 Outro:

G|-----------------|-----------------|-----------------|-----------------|
D|-----------------|-----------------|-----------------|-----------------|
A|---0-0-0-1-1-1-1-|-2-2-5-3-5-3-5-0-|---0-0-0-1-1-1-1-|-2-2-5-3-5-3-5-0-|
D|-----------------|-----------------|-----------------|-----------------|

G|-----------------|-----------------|-----------------|-----------------|
D|-----------------|--------------/7-|---7-7-7---------|-4-4-4-4---------|
A|---0-0-0-1-1-1-1-|-2-2-5-3-5-3-5---|---------8-8-8-8-|---------5-3-5---|
D|-----------------|-----------------|-----------------|-----------------|


************************************

| / Slide up
| \ Slide down
| x Ghost note
|(n) Tied note
|  Staccato

************************************
ⓘ Bass guitar tab for 'Public Enemy No 1' by Megadeth, a thrash metal band formed in 1983 from San Francisco, USA. Megadeth is known for their angry metal music.

Almost there ...

Sign in to get your own page with links to favourite songs and more. You are just one click away...

Login with Facebook Login with Google