Log in

One click and you are in

Login with Facebook Login with Google

Why sign up and log in

Guitar Tabs Explorer
Megadeth guitar tabs for No more mr  nice guy

Guitar tabs

-------------------------------------------------------------------------------
Tabbed by:John Long


Tuning:

e|---------------------------------------------------------------------------|
B|---------------------------------------------------------------------------|
G|--14-14--12---12-12-----------12-------------------------------------------|
D|--14-14--14---12-12--10-12/14---14-12-10-----------------------------------|
A|---------------------------------------------------------------------------|
E|---------------------------------------------------------------------------|

e|---------------------------------------------------------------------------|
B|---------------------------------------------------------------------------|
G|--2-2--0-00----------------------------------------------------------------|
D|--2-2--2-00---0------------------------------------------------------------|
A|-------------2-2p0---------------------------------------------------------|
E|------------3-----3--------------------------------------------------------|
              xxx


e|---------------------------------------------------------------------------|
B|---------------------------------------------------------------------------|
G|---------------------------------------------------------------------------|
D|-9--------9-8-7-6----------------------------------------------------------|
A|-7--------7-6-5-4----------------------------------------------------------|
E|----0-0------------0-0-0-0-0-0-0-------------------------------------------|
      x x            x x x x x x x


e|---------------------------------------------------------------------------|
B|---------------------------------------------------------------------------|
G|-14-----13-----12----------------------------------------------------------|
D|-14-----14-----12------6-6--9---11-11--------------------------------------|
A|-12-----12-----12------4-4--7----9--9--------------------------------------|
E|---------------------------------------------------------------------------|


e|---------------------------------------------------------------------------|
B|---------------------------------------------------------------------------|
G|---------------------------------------------------------------------------|
D|-9------------8-----------7--------------6-6--7--11-11---------------------|
A|-7------------6-----------5--------------4-4--5---9--9---------------------|
E|---0-0-0-0-0----0-0-0-0-0---0-0-0-0-0--------------------------------------|
     x x x x x    x x x x x   x x x x x


e|---------------------------------------------------------------------------|
B|-------------------------------------------------------------9-12----------|
G|-------------------------------------------------------------7-10----------|
D|--11-11----7-7----9-9-11-9---9-9-11-9---11-11----7-7---9-11----------------|
A|---9--9----5-5----7-7--7-7---7-7--7-7----9--9----5-5---7--9----------------|
E|---------------------------------------------------------------------------|

Almost there ...

Sign in to get your own page with links to favourite songs and more. You are just one click away...

Login with Facebook Login with Google