Log in

One click and you are in

Login with Facebook Login with Google

Why sign up and log in

Guitar Tabs Explorer
Megadeth tabs for New world order

Guitar tabs

Here is the riff at the beginning of the song and the chorus

|-------------------------------------------------------------------------------
|-------------------------------------------------------------------------------
|------------------------------------------------------7------------------------
|--2----------2----------------------------------------7------------------------
|--2-----0h2-----0h2--5-----5--------------------------5--------5--4------------
|--0------------------------3--------0--2--3-----2--0-----------3--2------------

Chorus
No confession, All is known
New world order shall be shown

==                           TABLATURE EXPLANATION                            ==

----------                            ----------
----5h8--- Hammeron                   ----(8)--- Ghost Note
----------                            ----------
----5p8--- Pulloff                    ----------

----------                            ----------
----5/8--- Slide Up                   -----x---- Dead Note
----------                            ----------
----5\8--- Slide Down                 ----------

----------                            ||------|| Repeat Start & End
----5~~~-- Vibrato                    ||*----*||
----------                            ||*----*||
----------                            ||------||

Rhythm:
  w = whole note            W = dotted whole
  h = half note             H = dotted half
  q = quarter note          Q = dotted quarter
  e = eighth note           A chord diagramE MajorE = dotted eighth
  s = sixteenth note        S = dotted sixteenth
  ^ = triplet

Almost there ...

Sign in to get your own page with links to favourite songs and more. You are just one click away...

Login with Facebook Login with Google