Guitar Tabs Explorer
Megadeth guitar tabs for Kingmaker

Kingmaker tab


2.7 / 5 [3 votes]

Kingmaker tab by Megadeth

Intro

Print
Tuning: D chord diagramDD

Difficulty: Novice

-------------------------------------------------------------------------------
                             KINGMAKER - Megadeth
-------------------------------------------------------------------------------


I was not able to tab all of it, but here is as good chunk of the song. I believe it is
accurate (the beginning part definitely is), however I tabbed it in standard tuning so
some parts might be a bit off. Still, it came out yesterday so you can at least jam
along with it for now.

0:18
e|---------------------------------------------------------------------------|
B|---------------------------------------------------------------------------|
G|---------------------------------------------------------------------------|
D|----------------------------5-7---------5-7---------5-7-8-7-5-8------------|
A|----------------------------3-5---------3-5---------3-5-6-5-3-6------------|
E|--------------------------------0-0000------0-0000--------------0-0000-----| x5
                                  * ****      * ****              * ****
0:38
e|---------------------------------------------------------------------------|
B|---------------------------------------------------------------------------|
G|---------------------------------------------------------------------------|
D|-8-------------------------------------------------------------------------|
A|-6-------------------------------------------------------------------------|
E|---0-00-00000--0--0-00-----------------------------------------------------|
     * ** *****  *  * **
0:40
e|---------------------------------------------------------------------------|
B|---------------------------------------------------------------------------|
G|-7p6p7------------------7p6p7---------------7p6p7--------------------------|
D|-5p4p5-6p5--------------5p4p5-6p5-----------5p4p5-6p5----------------------|
A|-------4p3--------------------4p3-----------------4p3----------------------|
E|-----------00-0-00000-------------00-0-0000--------------------------------|
             ** * *****             ** * ****

e|---------------------------------------------------------------------------|
B|---------------------------------------------------------------------------|
G|---------------------------------------------------------------------------|
D|-6p5-----------------------------------------------------------------------|
A|-4p3-----------------------------------------------------------------------|
E|-----00-00-00000-00-00-0---------------------------------------------------|
       ** ** ***** ** ** *
1:25
e|---------------------------------------------------------------------------|
B|---------------------------------------------------------------------------|
G|---------------------------------------------------------------------------|
D|--7-xxxx-6-xxxx-5-xxxx-4-xxxx-3-xxxx-2-xxxx--------------------------------|
A|--------------------------------------------333-333-333--------------------|
E|---------------------------------------------------------------------------| x4
                                              *** *** ***


************************************

| /   slide up
| \   slide down
| h   hammer-on
| p   pull-off
| ~   vibrato
| +   harmonic
| x   Mute note
| b   Bend
| pb  Pre-bend
| br  Bend release
| pbr Pre-bend release
| brb Bend release bend

Other versions of Kingmaker

- KingmakerTabs

Comment this song and these intro

Do you have corrections, comments on the intro, thoughts about the song or a message to the author? Write them below.