Log in

One click and you are in

Login with Facebook Login with Google

Why sign up and log in

Guitar Tabs Explorer
Megadeth guitar tabs for I thought i knew it all

Guitar tabs

I Thought I Knew It All
Transcribed by Christopher Heer

Tuning: 1/2 step down
Intro
-------------------
-------------------
-------------------
-4--------3--------
-4--------3--------
-2--------1--------


Verse
--------------------------------------------------
--------------------------------------------------
--------------------------------------------------
--------------------------------------------------
-------4/5-------7----3--------7/8--------7----5--
-0--0--2/3-0--0--5----1--0--0--5/6--0--0--5----3--


Pre-Chorus
-------------------------------------------------------------
-------------------------------------------------------------
---2p0---2p0---2p0---2h3p2p0-----2p0---2p0---2p0---2h3p2p0---
-0-----0-----0-----0-----------------------------------------
-------------------------------1-----1-----1-----1-----------
-------------------------------------------------------------

-------------------------------------------------------------
-------------------------------------------------------------
---2p0---2p0---2p0---2h3p2p0-----2p0---2p0---2p0---2h3p2p0---
-------------------------------------------------------------
------------------------------0------0-----0-----0-----------
-3-----3-----3-----3-----------------------------------------

-------------------------------------------------------------
-------------------------------------------------------------
---2p0---2p0---2p0---2h3p2p0-----2p0---2p0---2p0---2h3p2p0---
-0-----0-----0-----0-----------------------------------------
-------------------------------1-----1-----1-----1-----------
-------------------------------------------------------------

-------------------------------------------------------------
-------------------------------------------------------------
---2p0---2p0---2p0---2h3p2p0-----2p0---2p0---0---2p0--2p0--0-
-------------------------------------------------------------
-2-----2-----2-----2-----------3-----3-----3---4----4-----4--
-------------------------------------------------------------


Chorus
--------------------------------------------------
--------------------------------------------------
---------5-------2-------7------------------------
-2-------5-------2-------7---9--------------------
-2-------3-------0-------5---6--------------------
-0------------------------------------------------

with
-12p10-12-----------------------------------------
-------------12p10-12-----------------------------
-------------------------12p11-12-----------------
--------------------------------------------------
--------------------------------------------------
--------------------------------------------------

-5p3-5-----------------------------------------
-------------5p3-5-----------------------------
-------------------------5p4-5-----------------
-----------------------------------------------
-----------------------------------------------
-----------------------------------------------

Almost there ...

Sign in to get your own page with links to favourite songs and more. You are just one click away...

Login with Facebook Login with Google