Search tabs and chords

Search for song, artist or band

Log in

One click and you are in

Login with Facebook Login with Google

Why sign up and log in

Guitar Tabs Explorer
Megadeth bass tabs for High speed dirt

Bass tabs with lyrics

High Speed Dirt
from Countdown to Extinction
by Megadeth
transcribed by Travis Higgins
travis@primenet.com
http://www.primenet.com/~travis/bass.html
|-----------|-----------------|-----------------------|-
|-----------|-----------------|-----------------------|-
|-----------|--------3--4--5--|--3--4--5-----3--4--5--|-
|--5--------|-----------------|-----------------------|-


1st 2nd and 3rd verses               (repeat 8 times)
-||------------------------|---------------------||---
-||*-----------------------|--------------------*||---
-||*--3--------------------|-----5-----3--0--3--*||---
-||------5--5--5-----3--2--|---------------------||---


Bridge
||-------------------------|-------------------------|--
||*------------------------|-------------------------|--
||*---0--0--0--0--2--0--3--|--0--5--0--6h5--5--3--0--|--
||-------------------------|-------------------------|--



---------------------|---------------------------||---
---------------------|--------------------5-----*||---
---0--0--0--2--0--3--|--0--5--0--6-----7-----0--*||---
---------------------|---------------------------||---


1st and 2nd choruses
||-------------------------|--------------------------|--
||*------------------------|--------------------------|--
||*---3--------------------|--------------------------|--
||-------5--5--5--5--5--5--|--5--5--5--5--5--5--5--2--|--

(repeat 3 times)
------------------------|------------------------||-----------------------|
------------------------|-----------------------*||-----------------------|
---------------3--4--5--|--3--4--5-----3--4--5--*||--3--------------------|
2-----5--5--5-----------|------------------------||-----5--5--5--5--5--5--|



------------------------|--------------------------|--------------------|-
------------------------|--------------------------|--------------------|-
------------------------|-----------------3--4--5--|--3--4--5-----------|-
5--5--5--5--5--5--5--2--|--2-----5--5--5-----------|-----------3--2--0--|-


half time
----------9-----|-----------10--11--|--------12--12--|-----------13--14--|-
----------------|-------------------|----------------|-------------------|-
----------------|-------------------|----------------|-------------------|-
0---------------|--0--0--0----------|--0-------------|--0--0--0----------|-


Then goto 2nd verse and chorus


Guitar solo
||-------------------------|--------------------------|------
||*------------------------|--------------------------|------
||*---3--------------------|--------------------------|------
||-------5--5--5--5--5--5--|--5--5--5--5--5--5--5--2--|------


(repeat 4 times)
------------------------|---------------------||--------------|------------
------------------------|--------------------*||--------------|------------
---------------3--4--5--|--3--4--5--3--4--5--*||--------------|------------
2-----5--5--5-----------|---------------------||--5-----5--5--|--5-----5--5


2nd guitar solo                          (repeat 7 times)
||----------------------------|------------------------||-----
||*---------------------------|-----------------------*||-----
||*---------------------------|--------5-----3--------*||-----
||----5--5--5--5--5--5--3--2--|--2--2-----------5--5---||-----



------------------------|--------------------|-----------------|---
------------------------|--------------------|-----------------|---
------------------------|--------5--------3--|-----------------|---
5--5--5--5--5--5--3--2--|--2--2--------5-----|--5--------5--5--|---



---------------|--
---------------|--
---------------|--
5--------5--5--|--


Then goto 3rd verse


Outro chorus                            (Repeat 8 times)
||-------------------------|------------------------||-
||*------------------------|-----------------------*||-
||*------------------------|-----------5-----------*||-
||----5--5--5--5--3--0--2--|--2--0--0--------0--3---||-




(4 times)     Outro guitar solo           (repeat 3 times)
||----------------||-------------------------|---------------||--
||*--------------*||*------------------------|--------------*||--
||*--------------*||*---3--------------------|--5--3--0--3--*||--
||---5-----5--5---||-------5--5--5-----3--2--|---------------||--



------------------||
------------------||
------------------||
5--5--5--4--3--2--||




==           Created with a shareware version of the BUCKET 'O TAB            ==
==                           For more information:                            ==
==                          email: gse@ocsystems.com                          ==
==      US Mail: The Bucket, 3176-B5 Summit Square Dr., Oakton, VA 22124      ==

Almost there ...

Sign in to get your own page with links to favourite songs and more. You are just one click away...

Login with Facebook Login with Google