Guitar Tabs Explorer
Megadeth guitar tabs for Hangar eighteen

Hangar Eighteen tab


3.8 / 5 [4 votes]

Hangar Eighteen tab by Megadeth

Guitar tabs

Print
Riff A chord diagramAA
|-1-1-1-1-1-1-1-1-|-1-1-1-1-1-1-1-1-|-1-1-1-1-1-1-1-1-|-5-5-5-5-5-5-5-5-|
|-3-3-3-3-3-3-3-3-|-3-3-3-3-3-3-3-3-|-3-3-3-3-3-3-3-3-|-3-3-3-3-3-3-3-3-|
|-2-2-2-2-2-2-2-2-|-3-3-3-3-3-3-3-3-|-4-4-4-4-4-4-4-4-|-5-5-5-5-5-5-5-5-|
|-----------------|-----------------|-----------------|-----------------|
|-----------------|-----------------|-----------------|-----------------|
|-----------------|-----------------|-----------------|-----------------|

|-5-5-5-5-5-5-5-5-|-6-6-6-6-6-6-6-6-|-7-7-7-7-7-7-7-7-|-8-8-8-8-8-8-8-8-|
|-6-6-6-6-6-6-6-6-|-6-6-6-6-6-6-6-6-|-6-6-6-6-6-6-6-6-|-8-8-8-8-8-8-8-8-|
|-7-7-7-7-7-7-7-7-|-7-7-7-7-7-7-7-7-|-7-7-7-7-7-7-7-7-|-9-9-9-9-9-9-9-9-|
|-----------------|-----------------|-----------------|-----------------|
|-----------------|-----------------|-----------------|-----------------|
|-----------------|-----------------|-----------------|-----------------|


Riff B chord diagramBB
|---------1----5-------|---------1----6-------|
|-------3--------6-----|-------3--------6-----|
|-----2-----/7-----7---|-----3-----/7-----7---|
|-0--------------------|-0--------------------|
|----------------------|----------------------|
|----------------------|----------------------|

|---------1----7-------|---------5----8-------|
|-------3--------6-----|-------3--------8-----|
|-----4-----/7-----7---|-----5-----/9-----9---|
|-0--------------------|-0--------------------|
|----------------------|----------------------|
|----------------------|----------------------|


Riff C chord diagramCC
|----------------|----------------|----------------|----------------|
|-3-----/6-------|-3-----/6-------|-3-----/6-------|-5-----/8-------|
|-2-----/7-------|-3-----/7-------|-4-----/7-------|-5-----/9-------|
|---0-0----0-0-0-|---0-0----0-0-0-|---0-0----0-0-0-|---0-0----0-0-0-|
|----------------|----------------|----------------|----------------|
|----------------|----------------|----------------|----------------|


Riff D chord diagramDD
|-----------------|-----------------|-----------------|-----------------|
|-----------------|-----------------|-----------------|-----------------|
|-----------------|-----------------|-----------------|-----------------|
|-----7-----7-----|-----8-----8---8-|-----9-----9---9-|-----8-----8---8-|
|---5-----5-----5-|---5-----5-------|---5-----5-------|---5-----5-------|
|-5-----5-----5---|-6-----6-----6---|-7-----7-----7---|-6-----6-----6---|

|-----------------|-----------------|-----------------|--------------------|
|-----------------|-----------------|-----------------|--------------------|
|-----------------|-----------------|-----------------|--------------------|
|-----7-----7-----|-----8-----8---8-|-----9-----9---9-|-----10-----10---10-|
|---5-----5-----5-|---5-----5-------|---5-----5-------|---7------7---------|
|-5-----5-----5---|-6-----6-----6---|-7-----7-----7---|-8------8------8----|

|-----------------|-----------------|-----------------|--------------------|
|-----------------|-----------------|-----------------|--------------------|
|-----------------|-----------------|-----------------|--------------------|
|-----7-----7-----|-----8-----8---8-|-----9-----9---9-|-----11-----11---11-|
|---5-----5-----5-|---5-----5-------|---5-----5-------|---8------8---------|
|-5-----5-----5---|-6-----6-----6---|-7-----7-----7---|-9------9------9----|

Comment this song and these guitar tabs

Do you have corrections, comments on the guitar tabs, thoughts about the song or a message to the author? Write them below.