Guitar Tabs Explorer
Megadeth bass tabs for Hangar eighteen

Hangar Eighteen bass tab


Be the first to rate

Hangar Eighteen bass tab by Megadeth

Bass tabs with lyrics

Print

SONG:   HANGAR 18
ARTIST: MEGADETH
ALBUM:  RUST IN PEACE

TABBED BY:GARETH RICHARDS
EMAIL: jackslackofsurprise@hotmail.com

this one's a beauty! if you can pull this one off everyone will be
impressed! this is another example of how dave ellefson is a subtle and
under rated bass genius. it's in drop D tuning which doesn't often make
things easier but this time it does. for the verse riff i'm going to
contract my notation so it will look sixteenths but it's really eights to
save on space.

 4/4                  x 15
G---------------------------||----------------------------------||
D*-------------------------*||-12--12--12--12---12--12--12--12--||
A*-------------------------*||----------------------------------||
D--0--0--0--0---0--0--0--0--||----------------------------------||
   e  e  e  e   e  e  e  e     e   e   e   e    e   e   e   e


half time feel
G------------|-----------|-----------|------------|
D------------|-----------|-----------|------------|
A-0----------|-1---------|-2---------|-3----------|
D------------|-----------|-----------|------------|
  w            w           w           w

G------------------------|------------------------|
D------/12-12-12---------|------/12-12-12---------|
A-0----------------------|-1----------------------|
D----------------0--(0)--|----------------0--(0)--|
  q     s  s  s  s  (h)    q     s  s  s  s  (h)


G------------------------|-------------10-9-7-----7---------||
D------/12-12-12---------|------/12-----------10----10-8-7--||
A-2----------------------|-3--------------------------------||
D----------------0--(0)--|----------------------------------||
  q     s  s  s  s  (h)    q     q     s  s s s   s s  s s

PRE VERSE    h
G------------^----------------|-------------------------|-----|-----|
D-7--------10-12--------------|-------------------------|--%--|--%--|
A-----------------------------|-------------------------|-----|-----|
D----0--0----------0--0--0--0-|-0--0--0--0---0--0--0--0-|-----|-----|
  e  e  e  s   s   e  e  e  e   e  e  e  e   e  e  e  e

             h
G------------^----------------|-------------------------|
D-7--------10-12--------------|-------------------------|
A-----------------------------|-------------------------|
D----0--0----------0--0--0--0-|-0--0--0--0---0--0--0--0-|
  e  e  e  s   s   e  e  e  e   e  e  e  e   e  e  e  e

             h
G------------^----------------|-------------------------|
D-9--------10-12--------------|-------------------------|
A-----------------------------|-------------------------|
D----0--0----------0--0--0--0-|-0--0--0--0---0--0--0--0-|
  e  e  e  s  s    e  e  e  e   e  e  e  e   e  e  e  e



verse: "welcome to our fortress..."
G-------------------|------------------|-----|-----|
D-7-----12----------|------------------|--%--|--%--|
A-------------------|------------------|-----|-----|
D---0-0-----0-0-0-0-|-0-0-0-0--0-0-0-0-|-----|-----|
  e e e e   e e e e   e e e e  e e e e


G-------------------|------------------|-------------------|
D-7-----12----------|------------------|-9-----12----------|
A-------------------|------------------|-------------------|
D---0-0-----0-0-0-0-|-0-0-0-0--0-0-0-0-|---0-0-----0-0-0-0-|
  e e e e   e e e e   e e e e  e e e e   e e e e   e e e e


G------------------|
D------------------|
A------------------|
D-0-0-0-0--0-0-0-0-|
  e e e e  e e e e


G-------------------|-------------------|-------------------|
D-7-----12----------|-8-----12----------|-9-----12----------|
A-------------------|-------------------|-------------------|
D---0-0-----0-0-0-0-|---0-0-----0-0-0-0-|---0-0-----0-0-0-0-|
  e e e e   e e e e   e e e e   e e e e   e e e e   e e e e


G--------------------||
D-10-----12----------||
A--------------------||
D----0-0-----0-0-0-0-||
  e  e e e   e e e e


chorusy bit
G----------------|----------------|---------------|--------------|
D----------------|----------------|---------------|--------------|
A-5\----0--------|-5\----1--------|-5\----2-------|-5-3--(3)--3--|
D------------0-0-|------------0-0-|-------------0-|--------------|
  q.    q.   e e   q.    q.   e e   q.    q.    q   e e  (q)  h


solo number 1
G------------------|------------------|------------------|
D------------------|------------------|------------------|
A-0-0-0-0--0-0-0-0-|-1-1-1-1--1-1-1-1-|-2-2-2-2--2-2-2-2-|
D------------------|------------------|------------------|
  e e e e  e e e e   e e e e  e e e e   e e e e  e e e e

G------------------|------------------|------------------|
D------------------|------------------|------------------|
A-1-1-1-1--1-1-1-1-|-0-0-0-0--0-0-0-0-|-1-1-1-1--1-1-1-1-|
D------------------|------------------|------------------|
  e e e etc

G------------------|------------------|------------------|
D------------------|------------------|------------------|
A-2-2-2-2--2-2-2-2-|-3-3-3-3--3-3-3-3-|-0-0-0-0--0-0-0-0-|
D------------------|------------------|------------------|


G------------------|------------------|------------------|
D------------------|------------------|------------------|
A-1-1-1-1--1-1-1-1-|-2-2-2-2--2-2-2-2-|-1-1-1-1--1-1-1-1-|
D------------------|------------------|------------------|

G------------------|------------------|------------------|
D------------------|------------------|------------------|
A-0-0-0-0--0-0-0-0-|-1-1-1-1--1-1-1-1-|-2-2-2-2--2-2-2-2-|
D------------------|------------------|------------------|

 (1st time - - - - )
G------------------||
D------------------||
A-3----------------||
D------------------||



                          REPEAT PRE-VERSE AND VERSE



 (2nd time - - - - - - - - - - - - - -)
G------------------|------------------||
D------------------|------------------||
A-3-3-3-3--3-3-3-3-|-4-4-4-4--4-4-4-4-||
D------------------|------------------||




                       HERE COMES THE FUN BUT HARD PART



 nasty riff 1
G-----------------------------------|-----|-----|
D*-------------------3--------------|--%--|--%--|
A*-5-5-r-5--5-5-r-5----5-r-5--5--6--|-----|-----|
D-----------------------------------|-----|-----|
   s s r s  s s r s  s s r s  s  e.


 (1st time - - - - - - - - - - - - - -)
G-------------------------------------||
D-------------------3--------6-5-3---*||
A-5-5-r-5--5-5-r-5----5-r-5--------3-*||
D-------------------------------------||
  s s r s  s s r s  s s r s  s s s s


 (2nd time - - - - - - - - - - - - - )
G------------------------------------||
D-------------------6-5-3----6-5-3---||
A-5-5-r-5--5-5-r-5--------3--------3-||
D------------------------------------||
  s s r s  s s r s  s s s s  s s s s


 nasty riff 2
G-----------------------------------|-----------------------------------|
D-------4-----------------------5-r-|-------4---------------------------|
A----------------4------------5-----|----------------4----------3-2-0---|
D-2-3-4----r-4-r----r-4--r--5-------|-2-3-4----r-4-r----r-4--r--------2-|
  s s s s  r s r s  r s  r  s s s r   s s s s  r s r s  r s  r  s s s s
                         e                                   e

G-----------------------------------|-----------------------------------||
D-------4-----------------------5-r-|-------4---------------------------||
A----------------4------------5-----|----------------4--3-2-0----4-3--1-||
D-2-3-4----r-4-r----r-4--r--5-------|-2-3-4----r-4-r----------2---------||
  s s s s  r s r s  r s  r  s s s r   s s s s  r s r s  s s s s  s s
e

e



                             REPEAT WHOLE SECTION THEN...




 nasty riff 3                      x 4
G-------------------------------------||
D*--------------------H-----H-----H--*||
A*--------------------^-----^-----^--*||
D--5-4-0-4--5-7-5-4--4-5---4-5---4-5--||
   s s s s  s s s s   q     q     q
                      (     3     )



the zero that i've written in after the 5-4 in the nasty riff should
really be a 2 so that it matches up with the notes played by the guitars
but it's so fast and low pitched that it really doesn't matter too much
if you play 0 or 2 so long as the rhythm is tight.





           ALTERNATE BETWEEN NASTY RIFF 2 AND 3 TIL THE
END


then...



hold for drum cue
G-----------------|-----------------------------------|-----------||
D-----------------|--------------------H-----H-----H--|-----------||
A-1---------------|--------------------^-----^-----^--|-----------||
D-----------------|-5-4-0-4--5-7-5-4--4-5---4-5---4-5-|-4\--------||

and relax, get yourself a pint.

________________________________________________________________________________

Comment this song and these bass tabs

Do you have corrections, comments on the bass tabs, thoughts about the song or a message to the author? Write them below.