Search tabs and chords

Search for song, artist or band

Log in

One click and you are in

Login with Facebook Login with Google

Why sign up and log in

Guitar Tabs Explorer
Megadeth bass tabs for Hangar 18

Bass tabs

Bassist: David Ellefson
Tuning: BEADG (Standard 5-String)
Tempo: 160

Info: The first half of the song (before the 5th solo) is generally a lot easier due to none of the notes being shorter
than eighth notes. The song is mostly in a 4/4 time signature unless tabbed otherwise. David Ellefson
played this song with a pick but it is just as playable with fingers.

  Intro
G|---------------|-----------------|-----------------|-----------------|-----------------|-----------------|
D|---------------|-----------------|-----------------|-----------------|-----------------|-----------------|
A|---------------|-----------------|-----------------|-----------------|-----------------|-----------------|
E|-5-------------|-----------------|-6---------------|-----------------|-7---------------|-----------------|
B|---3-3-3-3-3-3-|-3-3-3-3-3-3-3-3-|---3-3-3-3-3-3-3-|-3-3-3-3-3-3-3-3-|---3-3-3-3-3-3-3-|-3-3-3-3-3-3-3-3-|
                                                       3x
G|-----------------|-----------------|-------------------|------------------|----------------------|
D|-----------------|-----------------|*-----------------*|------------------|----------------------|
A|-----------------|-----------------|--5----------------|-5-----------0/16-|-17-17-17-17-17-17----|
E|-8---------------|-----------------|*-----------------*|------------------|-------------------17|
B|---3-3-3-3-3-3-3-|-3-3-3-3-3-3-3-3-|----3-3-3-3-3-3-3--|---3-3-3-3-3------|----------------------|



G|-----------------|-----------------|-----------------|-----------------|-----------------|-----------------|
D|-7---------------|-(7)-------------|-8---------------|-(8)-------------|-9---------------|-(9)-------------|
A|-----------------|-----------------|-----------------|-----------------|-----------------|-----------------|
E|-5---------------|-(5)-------------|-6---------------|-(6)-------------|-7---------------|-(7)-------------|
B|-----------------|-----------------|-----------------|-----------------|-----------------|-----------------|



G|-----------------|-----------------|-----------------|-----------------|-----------------|-----------------|
D|-10--------------|-(10)------------|-----------------|-----------------|-----------------|-----------------|
A|-----------------|-----------------|---------5-5-5---|-----------------|---------5-5-5---|-----------------|
E|-8---------------|-(8)-------------|-5-----5---------|-----------------|-6-----6---------|-----------------|
B|-----------------|-----------------|---------------3-|-(3)---3-3-------|---------------3-|-(3)---3-3-------|


G|-----------------|-----------------|-----------------|-----------------|
D|-----------------|-----------------|-----------------|-----------------|
A|---------5-5-5---|-----------------|-5-----5-7-7-7---|-3-2-0-----------|
E|-7-----7---------|-----------------|-----------------|-------3-1-0-3-1-|
B|---------------3-|-(3)---3-3-------|---------------3-|-----------------|



G|-----------------|-----------------|-----------------|-----------------|
D|-----------------|-----------------|-----------------|-----------------|
A|-------5---------|-----------------|-----------------|-----------------|
E|-5---------------|-----------------|-----------------|-----------------|
B|---3-3---3-3-3-3-|-3-3-3-3-3-3-3-3-|-3-3-3-3-3-3-3-3-|-3-3-3-3-3-3-3-3-|



G|-----------------|-----------------|-----------------|-----------------|
D|-----------------|-----------------|-----------------|-----------------|
A|-------5---------|-----------------|-2-----5---------|-----------------|
E|-5---------------|-----------------|-----------------|-----------------|
B|---3-3---3-3-3-3-|-3-3-3-3-3-3-3-3-|---3-3---3-3-3-3-|-3-3-3-3-3-3-3-3-|


  Verse 1
G|-----------------|-----------------|-----------------|-----------------|
D|-----------------|-----------------|-----------------|-----------------|
A|-------5---------|-----------------|-----------------|-----------------|
E|-5---------------|-----------------|-----------------|-----------------|
B|---3-3---3-3-3-3-|-3-3-3-3-3-3-3-3-|-3-3-3-3-3-3-3-3-|-3-3-3-3-3-3-3-3-|



G|-----------------|-----------------|-----------------|-----------------|
D|-----------------|-----------------|-----------------|-----------------|
A|-------5---------|-----------------|-2-----5---------|-----------------|
E|-5---------------|-----------------|-----------------|-----------------|
B|---3-3---3-3-3-3-|-3-3-3-3-3-3-3-3-|---3-3---3-3-3-3-|-3-3-3-3-3-3-3-3-|



G|-----------------|-----------------|-----------------|-----------------|
D|-----------------|-----------------|-----------------|-----------------|
A|-------5---------|-1-----5---------|-2-----5---------|-3-----5---------|
E|-5---------------|-----------------|-----------------|-----------------|
B|---3-3---3-3-3-3-|---3-3---3-3-3-3-|---3-3---3-3-3-3-|---3-3---3-3-3-3-|


  Chorus
G|-----------------|-----------------|-----------------|-----------------|
D|-----------------|-----------------|-----------------|--------------10|
A|-5\---------|-5\1---------|-5\2---------|-5-3---3-3/10----|
E|-----------------|-----------------|-----------------|-----------------|
B|-------------3-3-|-------------3-3-|-------------3-3-|-----3-----------|


  Solo 1
G|-----------------|-----------------|-----------------|-----------------|
D|-----------------|-----------------|-----------------|-----------------|
A|-0-0-0-0-0-0-0-0-|-1-1-1-1-1-1-1-1-|-2-2-2-2-2-2-2-2-|-1-1-1-1-1-1-1-1-|
E|-----------------|-----------------|-----------------|-----------------|
B|-----------------|-----------------|-----------------|-----------------|



G|-----------------|-----------------|-----------------|-----------------|
D|-----------------|-----------------|-----------------|-----------------|
A|-0-0-0-0-0-0-0-1-|-1-1-1-1-1-1-1-1-|-2-2-2-2-2-2-2-2-|-3-3-3-3-3-3-3-3-|
E|-----------------|-----------------|-----------------|-----------------|
B|-----------------|-----------------|-----------------|-----------------|


  Solo 2
G|-----------------|-----------------|-----------------|-----------------|
D|-----------------|-----------------|-----------------|-----------------|
A|-0-0-0-0-0-0-0-0-|-1-1-1-1-1-1-1-1-|-2-2-2-2-2-2-2-2-|-1-1-1-1-1-1-1-1-|
E|-----------------|-----------------|-----------------|-----------------|
B|-----------------|-----------------|-----------------|-----------------|



G|-----------1-----|-----3-----3---3-|-----------------|-----------------|
D|-3-3-2-3-3---3-0-|-5-5---5-5---5---|-3-2-0-----------|-----------------|
A|-----------------|-----------------|-------3-1-0-1-2-|-3-REST----------|
E|-----------------|-----------------|-----------------|-----------------|
B|-----------------|-----------------|-----------------|-----------------|



G|-----------------|-----------------|-----------------|-----------------|
D|-----------------|-----------------|-----------------|-----------------|
A|-------5---------|-----------------|-----------------|-----------------|
E|-5---------------|-----------------|-----------------|-----------------|
B|---3-3---3-3-3-3-|-3-3-3-3-3-3-3-3-|-3-3-3-3-3-3-3-3-|-3-3-3-3-3-3-3-3-|



G|-----------------|-----------------|-----------------|-----------------|
D|-----------------|-----------------|-----------------|-----------------|
A|-------5---------|-----------------|-2-----5---------|-----------------|
E|-5---------------|-----------------|-----------------|-----------------|
B|---3-3---3-3-3-3-|-3-3-3-3-3-3-3-3-|---3-3---3-3-3-3-|-3-3-3-3-3-3-3-3-|



  Verse 2
G|-----------------|-----------------|-----------------|-----------------|
D|-----------------|-----------------|-----------------|-----------------|
A|-------5---------|-----------------|-----------------|-----------------|
E|-5---------------|-----------------|-----------------|-----------------|
B|---3-3---3-3-3-3-|-3-3-3-3-3-3-3-3-|-3-3-3-3-3-3-3-3-|-3-3-3-3-3-3-3-3-|



G|-----------------|-----------------|-----------------|-----------------|
D|-----------------|-----------------|-----------------|-----------------|
A|-------5---------|-----------------|-2-----5---------|-----------------|
E|-5---------------|-----------------|-----------------|-----------------|
B|---3-3---3-3-3-3-|-3-3-3-3-3-3-3-3-|---3-3---3-3-3-3-|-3-3-3-3-3-3-3-3-|



G|-----------------|-----------------|-----------------|-----------------|
D|-----------------|-----------------|-----------------|-----------------|
A|-------5---------|-1-----5---------|-2-----5---------|-3-----5---------|
E|-5---------------|-----------------|-----------------|-----------------|
B|---3-3---3-3-3-3-|---3-3---3-3-3-3-|---3-3---3-3-3-3-|---3-3---3-3-3-3-|



  Chorus
G|-----------------|-----------------|-----------------|-----------------|
D|-----------------|-----------------|-----------------|--------------10|
A|-5\---------|-5\1---------|-5\2---------|-5-3---3-3/10----|
E|-----------------|-----------------|-----------------|-----------------|
B|-------------3-3-|-------------3-3-|-------------3-3-|-----3-----------|


  Solo 3
G|-----------------|-----------------|-----------------|-----------------|
D|-----------------|-----------------|-----------------|-----------------|
A|-0-0-0-0-0-0-0-0-|-1-1-1-1-1-1-1-1-|-2-2-2-2-2-2-2-2-|-1-1-1-1-1-1-1-1-|
E|-----------------|-----------------|-----------------|-----------------|
B|-----------------|-----------------|-----------------|-----------------|



G|-----------------|-----------------|-----------------|-----------------|
D|-----------------|-----------------|-----------------|-----------------|
A|-0-0-0-0-0-0-0-1-|-1-1-1-1-1-1-1-1-|-2-2-2-2-2-2-2-2-|-3-3-3-3-3-3-3-3-|
E|-----------------|-----------------|-----------------|-----------------|
B|-----------------|-----------------|-----------------|-----------------|


  Solo 4
G|-----------------|-----------------|-----------------|-----------------|
D|-----------------|-----------------|-----------------|-----------------|
A|-0-0-0-0-0-0-0-0-|-1-1-1-1-1-1-1-1-|-2-2-2-2-2-2-2-2-|-1-1-1-1-1-1-1-1-|
E|-----------------|-----------------|-----------------|-----------------|
B|-----------------|-----------------|-----------------|-----------------|



G|-----------1-----|-----------------|-----------------|-----------------|
D|-----2-3-3---3-0-|-----------------|-3-2-0-----------|---2---2-2---2---|
A|-0-0-------------|-1-1-1-1-1-1-1-1-|-------2-1-0-1-2-|-3---3-----3---3-|
E|-----------------|-----------------|-----------------|-----------------|
B|-----------------|-----------------|-----------------|-----------------|


  Solo 5
G|-----------------|
D|-----------------|
A|-4-4-4-4-4-4-4-4-|
E|-----------------|
B|-----------------|


  Tempo 120 (More difficult riffs)
G|-----------------|-----------------|-----------------|-----------------|
D|---R-R-R-3-R-----|---R-R-R-3-R-----|---R-R-R-3-R-----|---R-R-R-3-R-653-|
A|-55-5-5-5-5-556-5|-55-5-5-5-5-556-5|-55-5-5-5-5-556-5|-55-5-5-5-5-5---5|
E|-----------------|-----------------|-----------------|-----------------|
B|-----------------|-----------------|-----------------|-----------------|


G|-----------------|-----------------|-----------------|-----------------|
D|---R-R-R-3-R-----|---R-R-R-3-R-----|---R-R-R-3-R-----|---R-R-R-6535653-|
A|-55-5-5-5-5-556-5|-55-5-5-5-5-556-5|-55-5-5-5-5-556-5|-55-5-5-5--------|
E|-----------------|-----------------|-----------------|-----------------|
B|-----------------|-----------------|-----------------|-----------------|


G|-----------------|-----------------|-----------------|---------542-653-|
D|----4----------5-|----4---------pp-|----4----------5-|----4-------3---6|
A|-----R-R-0-R--5--|-----R-R-0-R-320-|-----R-R-0-R--5--|-----R-R---------|
E|-012--2-2-2-23---|-012--2-2-2-0---0|-012--2-2-2-23---|-012--2-2--------|
B|-----------------|-----------------|-----------------|-----------------|


  Solo 6
G|-----------------|-----------------|-----------------|-----------------|
D|---R-R-R-3-R-----|---R-R-R-3-R-----|---R-R-R-3-R-----|---R-R-R-3-R-653-|
A|-55-5-5-5-5-556-5|-55-5-5-5-5-556-5|-55-5-5-5-5-556-5|-55-5-5-5-5-5---5|
E|-----------------|-----------------|-----------------|-----------------|
B|-----------------|-----------------|-----------------|-----------------|


G|-----------------|-----------------|-----------------|-----------------|
D|---R-R-R-3-R-----|---R-R-R-3-R-----|---R-R-R-3-R-----|---R-R-R-6535653-|
A|-55-5-5-5-5-556-5|-55-5-5-5-5-556-5|-55-5-5-5-5-556-5|-55-5-5-5--------|
E|-----------------|-----------------|-----------------|-----------------|
B|-----------------|-----------------|-----------------|-----------------|


G|-----------------|-----------------|-----------------|---------542-653-|
D|----4----------5-|----4---------pp-|----4----------5-|----4-------3---6|
A|-----R-R-0-R--5--|-----R-R-0-R-320-|-----R-R-0-R--5--|-----R-R---------|
E|-012--2-2-2-23---|-012--2-2-2-0---0|-012--2-2-2-23---|-012--2-2--------|
B|-----------------|-----------------|-----------------|-----------------|


G|-----------------|-----------------|-----------------|-----------------|
D|-----------------|-----------------|-----------------|-----------------|
A|----------h--h--h|----------h--h--h|----------h--h--h|----------h--h--h|
E|-3202353223-23-23|-3202353223-23-23|-3202353223-23-23|-3202353223-23-23|
B|-----------------|-----------------|-----------------|-----------------|


  Solo 7
G|-----------------|-----------------|-----------------|---------542-653-|
D|----4----------5-|----4---------pp-|----4----------5-|----4-------3---6|
A|-----R-R-0-R--5--|-----R-R-0-R-320-|-----R-R-0-R--5--|-----R-R---------|
E|-012--2-2-2-23---|-012--2-2-2-0---0|-012--2-2-2-23---|-012--2-2--------|
B|-----------------|-----------------|-----------------|-----------------|


G|-----------------|-----------------|-----------------|-----------------|
D|-----------------|-----------------|-----------------|-----------------|
A|----------h--h--h|----------h--h--h|----------h--h--h|----------h--h--h|
E|-3202353223-23-23|-3202353223-23-23|-3202353223-23-23|-3202353223-23-23|
B|-----------------|-----------------|-----------------|-----------------|


  Solo 8
G|-----------------|-----------------|-----------------|---------542-653-|
D|----4----------5-|----4---------pp-|----4----------5-|----4-------3---6|
A|-----R-R-0-R--5--|-----R-R-0-R-320-|-----R-R-0-R--5--|-----R-R---------|
E|-012--2-2-2-23---|-012--2-2-2-0---0|-012--2-2-2-23---|-012--2-2--------|
B|-----------------|-----------------|-----------------|-----------------|


G|-----------------|-----------------|-----------------|-----------------|
D|-----------------|-----------------|-----------------|-----------------|
A|----------h--h--h|----------h--h--h|----------h--h--h|----------h--h--h|
E|-3202353223-23-23|-3202353223-23-23|-3202353223-23-23|-3202353223-23-23|
B|-----------------|-----------------|-----------------|-----------------|


  Solo 9
G|-----------------|-----------------|-----------------|---------542-653-|
D|----4----------5-|----4---------pp-|----4----------5-|----4-------3---6|
A|-----R-R-0-R--5--|-----R-R-0-R-320-|-----R-R-0-R--5--|-----R-R---------|
E|-012--2-2-2-23---|-012--2-2-2-0---0|-012--2-2-2-23---|-012--2-2--------|
B|-----------------|-----------------|-----------------|-----------------|


G|-----------------|-----------------|-----------------|-----------------|
D|-----------------|-----------------|-----------------|-----------------|
A|----------h--h--h|----------h--h--h|----------h--h--h|----------h--h--h|
E|-3202353223-23-23|-3202353223-23-23|-3202353223-23-23|-3202353223-23-23|
B|-----------------|-----------------|-----------------|-----------------|


  Solo 10
G|-----------------|-----------------|-----------------|---------542-653-|
D|----4----------5-|----4---------pp-|----4----------5-|----4-------3---6|
A|-----R-R-0-R--5--|-----R-R-0-R-320-|-----R-R-0-R--5--|-----R-R---------|
E|-012--2-2-2-23---|-012--2-2-2-0---0|-012--2-2-2-23---|-012--2-2--------|
B|-----------------|-----------------|-----------------|-----------------|


G|-----------------|-----------------|-----------------|-----------------|
D|-----------------|-----------------|-----------------|-----------------|
A|----------h--h--h|----------h--h--h|----------h--h--h|----------h--h--h|
E|-3202353223-23-23|-3202353223-23-23|-3202353223-23-23|-3202353223-23-23|
B|-----------------|-----------------|-----------------|-----------------|


  Solo 11
G|-----------------|-----------------|-----------------|---------542-653-|
D|----4----------5-|----4---------pp-|----4----------5-|----4-------3---6|
A|-----R-R-0-R--5--|-----R-R-0-R-320-|-----R-R-0-R--5--|-----R-R---------|
E|-012--2-2-2-23---|-012--2-2-2-0---0|-012--2-2-2-23---|-012--2-2--------|
B|-----------------|-----------------|-----------------|-----------------|


G|-----------------|-----------------|-----------------|---------542-653-|
D|----4----------5-|----4---------pp-|----4----------5-|----4-------3---6|
A|-----R-R-0-R--5--|-----R-R-0-R-320-|-----R-R-0-R--5--|-----R-R---------|
E|-012--2-2-2-23---|-012--2-2-2-0---0|-012--2-2-2-23---|-012--2-2--------|
B|-----------------|-----------------|-----------------|-----------------|

                    2/4       4/4 Outro
G|-----------------|---------|-----------------|-----------------|
D|-----------------|---------|-----------------|-----------------|
A|-----------------|---------|----------h--h--h|-----------------|
E|-3---------------|-(3)-----|-3202353223-23-23|-2--REST---------|
B|-----------------|---------|-----------------|-----------------|



| R  rest
| /  slide up
|   slide down
| h  hammer-on
| p  pull-off
| ~  vibrato
| +  harmonic
| x  Mute note

Almost there ...

Sign in to get your own page with links to favourite songs and more. You are just one click away...

Login with Facebook Login with Google