Guitar Tabs Explorer
Megadeth bass tabs for Foreign policy

Foreign Policy bass tab


Be the first to rate

Foreign Policy bass tab by Megadeth

Bass tabs

Print

Megadeth: Foreign Policy

[Intro/Chorus]
G|------------------------------------------------|
D|------------------------------------------------|
A|------------------------------------------------|2x
E|-0~-3-0~-3~-0~-3-0~-3---0~-3-0~-3~-0~-3-0~-3-0--|

[Verse]
G|--------------------------------------------------------------------|
D|--------------------------------------------------------------------|
A|-3-3-3-3-3-3-3-3-2-2-2-2-2-2-2-2-0-0-0-0-0-0-0-0-0-0-0-0-0-2-2-2--2-|
E|--------------------------------------------------------------------|

G|-----------------------------------------------------------------|
D|---------------------------------3-3-3-3-3-3-3-3-3-3-3-3-3-3-3-3-|
A|-3-3-3-3-3-3-3-3-2-2-2-2-2-2-2-2---------------------------------|
E|-----------------------------------------------------------------|

G|--------------------------------------------------------------------|
D|--------------------------------------------------------------------|
A|-3-3-3-3-3-3-3-3-2-2-2-2-2-2-2-2-0-0-0-0-0-0-0-0-0-0-0-0-0-2-2-2--2-|
E|--------------------------------------------------------------------|

G|-------------------------------------------------|
D|---------------------------------3-3-3-3-3-3-3-3-|
A|-3-3-3-3-3-3-3-3-2-2-2-2-2-2-2-2-----------------|
E|-------------------------------------------------|

G|------------------------------|
D|------------------------------|
A|-0-0-0-0-0-0-0-0-0-0-0-0-0----|
E|------------------------------|

[Chorus]
G|------------------------------------------------|
D|------------------------------------------------|
A|------------------------------------------------|2x
E|-0~-3-0~-3~-0~-3-0~-3---0~-3-0~-3~-0~-3-0~-3-0--|

[Verse]
G|--------------------------------------------------------------------|
D|--------------------------------------------------------------------|
A|-3-3-3-3-3-3-3-3-2-2-2-2-2-2-2-2-0-0-0-0-0-0-0-0-0-0-0-0-0-2-2-2--2-|
E|--------------------------------------------------------------------|

G|-----------------------------------------------------------------|
D|---------------------------------3-3-3-3-3-3-3-3-3-3-3-3-3-3-3-3-|
A|-3-3-3-3-3-3-3-3-2-2-2-2-2-2-2-2---------------------------------|
E|-----------------------------------------------------------------|

G|--------------------------------------------------------------------|
D|--------------------------------------------------------------------|
A|-3-3-3-3-3-3-3-3-2-2-2-2-2-2-2-2-0-0-0-0-0-0-0-0-0-0-0-0-0-2-2-2--2-|
E|--------------------------------------------------------------------|

G|-------------------------------------------------|
D|---------------------------------3-3-3-3-3-3-3-3-|
A|-3-3-3-3-3-3-3-3-2-2-2-2-2-2-2-2-----------------|
E|-------------------------------------------------|

G|------------------------------|
D|------------------------------|
A|-0-0-0-0-0-0-0-0-0-0-0-0-0----|
E|------------------------------|

[Chorus]
G|------------------------------------------------|
D|------------------------------------------------|
A|------------------------------------------------|2x
E|-0~-3-0~-3~-0~-3-0~-3---0~-3-0~-3~-0~-3-0~-3-0--|

[Solo]
G|--------------------------------|
D|--------------------------------|
A|-0-0-0-0-0-0-0-0-0-0-0-0-0-0-1~-| 8x
E|--------------------------------|

[Chorus]
G|------------------------------------------------|
D|------------------------------------------------|
A|------------------------------------------------|2x
E|-0~-3-0~-3~-0~-3-0~-3---0~-3-0~-3~-0~-3-0~-3-0--|

[Verse]
G|--------------------------------------------------------------------|
D|--------------------------------------------------------------------|
A|-3-3-3-3-3-3-3-3-2-2-2-2-2-2-2-2-0-0-0-0-0-0-0-0-0-0-0-0-0-2-2-2--2-|
E|--------------------------------------------------------------------|

G|-----------------------------------------------------------------|
D|---------------------------------3-3-3-3-3-3-3-3-3-3-3-3-3-3-3-3-|
A|-3-3-3-3-3-3-3-3-2-2-2-2-2-2-2-2---------------------------------|
E|-----------------------------------------------------------------|

G|--------------------------------------------------------------------|
D|--------------------------------------------------------------------|
A|-3-3-3-3-3-3-3-3-2-2-2-2-2-2-2-2-0-0-0-0-0-0-0-0-0-0-0-0-0-2-2-2--2-|
E|--------------------------------------------------------------------|

G|-------------------------------------------------|
D|---------------------------------3-3-3-3-3-3-3-3-|
A|-3-3-3-3-3-3-3-3-2-2-2-2-2-2-2-2-----------------|
E|-------------------------------------------------|

G|------------------------------|
D|------------------------------|
A|-0-0-0-0-0-0-0-0-0-0-0-0-0----|
E|------------------------------|

[Final Chorus]
G|------------------------------------------------|
D|------------------------------------------------|
A|------------------------------------------------|3x
E|-0~-3-0~-3~-0~-3-0~-3---0~-3-0~-3~-0~-3-0~-3-0--|

G|-----------------------------------------------------------------------------|
D|-----------------------------------------------------------------------------|
A|------------------------7-7-7-7-7-7-7-7-7-7-7-7-7-7-7-7-7-7-7-7-7\-----------|
E|-0~-3-0~-3~-0~-3-0~-3----------------------------------------------0~--------|

************************************

| ~  Vibrato
| \  Slide down

Comment this song and these bass tabs

Do you have corrections, comments on the bass tabs, thoughts about the song or a message to the author? Write them below.