Log in

One click and you are in

Login with Facebook Login with Google

Why sign up and log in

Guitar Tabs Explorer
Megadeth bass tabs for Foreclosure of a dream

Bass tabs with lyrics

Foreclosure of a Dream
                 by Megadeth
             transcribed by Travis Higgins


     Intro
||------------------|-------------------|---------------------------------------
||------------------|----------------3--|--5--3---------------------------------
||------------------|-----------3h5-----|--------3-----2--1---------------------
||--3------------1--|--3----------------|--------------------1------------------
   1st and 2nd Verses
||-------------------------------||--------------------|------------------------
||*--------------------------5--*||--7--6--5--4--3--2--|------------------------
||*---------3--2-----1---/5-----*||--------------------|------------------------
||----3--1-----------------------||--------------------|------------------------


                      Chorus
------------------|--------------------||----------------------------------|----
------------------|--------------------||*---------------------------------|----
7--6--5--4--3--2--|--5--3--1--0--------||*---------------------------------|----
------------------|--------------3--1--||----3-----1-----1--1--1--1--1--1--|----


---------------------------|-----------------------------|----------------------
---------------------------|-----------------------------|----------------------
3--1-----1--1--1--1--1--1--|-----------------------------|----------------------
---------------------------|--3--1-----1--1--1--1--1--1--|----------------------


          then play intro part again
----------------||---------------------------|----------------------------------
---------------*||---------------------------|----------------------------------
3--1-----3--4--*||---------------------------|----------------------------------
----------------||---------------------------|----------------------------------

guitar solo I
----------------------------|-----------------|---------------------------------
----------------------------|-----------------|---------------------------------
----------------------------|--5--3-----5--6--|---------------------------------
-5--3-----3--3--3--3--3--0--|-----------------|---------------------------------


---------------------------|-----------------|----------------------------------
---------------------------|-----------------|----------------------------------
---------------------------|--5--3-----6--5--|----------------------------------
5--3-----3--3--3--3--3--0--|-----------------|/7--------------------------------


--------------------------------|---------------------------------|-------------
-------10--9--9--------7--9--9--|---------------------------------|-------------
--------------------------------|--------10--9--9--------7--9--9--|-------------
/7--7------------7--7-----------|--7--7------------7--7-----------|/7-----------


--------------------------------|--------------------------|--------------------
-------10--9--9--------7--9--9--|--------------------------|--------------------
--------------------------------|--------10--9--9----------|--------------------
/7--7------------7--7-----------|--7--7------------7--8--9\|--------------------


back to intro     3rd verse
-------------------|------------------|-----------------|-----------------------
-------------------|------------------|-----------------|-----------------------
-------------------|------------------|-----------------|-----------------------
-------------------|---3-----------1--|--3-----------1--|-----------------------


-----------------------|--------------3--(3)h5-----|--------------------|-------
-----------------3-----|--5--3------------------5--|--7--6--5--4--3--2--|-------
------------3h5-----5--|--------3--1---------------|--------------------|-------
3----------------------|---------------------------|--------------------|-------


                     guitar solos II (play chorus)
------------------|--------------------|---------------------------|------------
------------------|--------------------|---------------------------|------------
7--6--5--4--3--2--|--5--3--1--0--------|---------------------------|------------
------------------|--------------3--1--|---------------------------|------------




==      Created with a shareware version of the BUCKET 'O TAB      ==
==              For more information:              ==
==             email: gse@ocsystems.com             ==
==   US Mail: The Bucket, 3176-B5 Summit Square Dr., Oakton, VA 22124   ==

Almost there ...

Sign in to get your own page with links to favourite songs and more. You are just one click away...

Login with Facebook Login with Google