Log in

One click and you are in

Login with Facebook Login with Google

Why sign up and log in

Guitar Tabs Explorer
Megadeth guitar tabs for Forclosure of a dream

Guitar tabs

id AA11350; Mon, 10 Jan 94 10:17:27 CST
	id AA28746; Mon, 10 Jan 94 10:17:27 CST

Megadeth -Foreclosure of a Dream-

Here's some basic stuff I worked out. It's sorta rough.

Verses
--------------------------------------------------------------------------
--------------------------------------------------------------------------
--0----0---0---0---0-----------------0-----0----0-------------------------
---0----0---0---0---0-----------------0-----0----0------------------------
-7----8---4---5---2----------------12----13---11--------------------------
--------------------------------------------------------------------------
Rise so high, yet so far to fall...
Chorus
-----------------------------------------------------------------------------
-----------------------------------------------------------------------------
--------5--3-----------------5--3--5--6------2--2--2-2--2--2--2-2-2...2-2-0-2
5--3----5--3----5--3---------5--3--5--6------2--2--3-2--2--2--2-3-2...2-2-0-2
5--3----3--1----5--3---------3--1--3--4---------------------------------------
3--1------------3--1----------------------------------------------------------
Foreclosure of a dream...

I hope somebody can figure this out.

-ri

Almost there ...

Sign in to get your own page with links to favourite songs and more. You are just one click away...

Login with Facebook Login with Google