Search tabs and chords

Search for song, artist or band

Log in

One click and you are in

Login with Facebook Login with Google

Why sign up and log in

Guitar Tabs Explorer
Megadeth bass tabs for Five magics

Bass tabs with lyrics

SONG: FIVE MAGICS
ARTIST:MEGADETH
ALBUM: RUST IN PEACE
tabbed by gareth richards, jackslackofsurprise@hotmail.com
I write bass for five string generally cos that's what i play but where
the song doesn't need that extra low end phatness i'll tab for a four
string bass.
i have the time changes and counts/accents that go with them to help. the
only symbols used are |----%----| for "repeat the bar", > for accented
beats and ^ for hammer ons.
enjoy.


4/4 INTRO RIFF
G---------------------|----------------------|
D---------------------|----------------------|
A--7-6-5-----7-6-5----|-7-6-5-----7-6-5------|
E---------6---------6-|--------6---------3---|
B---------------------|----------------------|

G---------------------|----------------------|
D---------------------|----------------------|
A--7-6-5-----7-6-5----|-7-6-5-----7-6-5------|
E---------6---------6-|--------6---------6-3-|
B---------------------|----------------------|


  4/4 RIFF A x 7
G|--------------------0-----|----------------------11------|
D|*-------5--------8-----8--|--------9---------10------10--|
A|-----7--------7-----------|----10--------12--------------|
E|*-0--------0--------------|-0---------0------------------|
B|--------------------------|------------------------------|

G--------------------0------|----------------------11------||
D--------5--------8-----8---|--------9---------10--------*-||
A-----7--------7------------|----10--------12--------------||
E--0--------0---------------|-0---------0----------------*-||
B---------------------------|------------------------------||

G--------------------0------|----------------------11------|
D--------5--------8-----8---|--------9---------10------10--|
A-----7--------7------------|----10--------12--------------|
E--0--------0---------------|-0---------0------------------|
B---------------------------|------------------------------|

RIFF B x 3
G|----------------------------|-------------------------||
D|*--------5--------5---------|-----------------------*-||
A|------5--------5------------|-------------------------||
E|*--7--------6--------3--2---|-0----0--2--3--2--3--5-*-||
B|----------------------------|---4---------------------||

G---------------------------|------------------------||
D--------5--------5---------|------------------------||
A-----5--------5------------|------------------------||
E--7--------6--------3--2---|-0----------------------||
B---------------------------|------------------------||

                   |-----RIFF A x 5-----|


G--------------------0-----|----------------------11------|
D--------5--------8-----8--|--------9---------10------10--|
A-----7--------7-----------|----10--------12--------------|
E--0--------0--------------|-0---------0------------------|
B--------------------------|------------------------------|

G--------------------------|-----------------------------||
D--------5--------5--------|-----------------------------||
A-----5--------5-----------|-----------------------------||
E--7--------6--------3--2--|-0---------------0--0--0--1--||
B--------------------------|-----------------------------||


  VERSE RIFF x 7
G|----------------------|-------------------|---------------------|
D|*---------------------|-------------------|---------------------|
A|----------------------|-------------------|------------2--------|
E|*-(1)-1-1-1--1-1-1-1--|-1-1-1-1--0-3-5-0--|-(0)--0-0-------0-0--|
B|----------------------|-------------------|---------------------|

G----------------------||---------------------|-------------------|
D--------------------*-||---------------------|-------------------|
A--0-------------------||---------------------|-------------------|
E-----3-(3)--0-1-3-1-*-||-(1)-1-1-1--1-1-1-1--|-1-1-1-1--0-3-5-0--|
B----------------------||---------------------|-------------------|
                                                               >


 5/8 INTERLUDE RIFF
G--------|---------|---------|---------|---------|---------|
D--------|---------|---------|---------|---------|---------|
A--------|---------|---------|---------|---------|---------|
E--------|---------|-0-------|-(0)-----|-0-------|---------|
B--------|---------|---------|---------|---------|---------|
                                         >
                                x8
G-9------|-(9)---------------||------------|------------||
D--------|-------------------||*-----------|----------*-||
A-7------|-(7)---------------||------------|------------||
E--------|-------------0--0--||*-0-----1---|-2-----3--*-||
B--------|-------------------||------------|------------||
                                 1 2 3 4 5  etc
                                                    4/4
G|------------|------------||----------|----------|-----------------||
D|*-----------|----------*-||----------|----------|-----------------||
A|--7-----8---|-9-----10---||-7-----6--|-5-----4--|-3-----2---1-----||
E|*-----------|----------*-||----------|----------|-----------------||
B|------------|------------||----------|----------|-----------------||
    1 2 3 4 5  etc            1 2 3 4 5 etc         1 2 3 4 5 6 7 8


   4/4 "GIVE ME ALCHEMY..."
G||--------------------|-------------------|--------------------|
D||*-------------------|-------------------|-----------h--------|
A||--2-0---------------|-2-0---------------|-2-0-------^--------|
E||*-----3-2--0--------|-----3-2--1--------|-----3-2--1-2--(2)--|
B||--------------------|-------------------|--------------------|


                      5/4  "I master..." x 4
G-------------------||-------------------------|------------------------|
D-----------------*-||*------------------------|------------------------|
A-2-0---------------||--2-0--------------------|-2-0--------------------|
E-----3-2--3------*-||*-----3-2--0-0-0--0-0-0--|-----3-2--1-1-1--1-1-1--|
B-------------------||-------------------------|------------------------|
                                 >      >                 >      >


                                                     5/8
G------------------------|-------------------------||-----------||
D-----------h------h-----|-----------------------*-||-----------||
A-2-0-------^------^-----|-2-0---------------------||-2-0-------||
E-----3-2--1-2-2--1-2-2--|-----3-2--3-3-3--3-3-3-*-||-----3-2-1-||
B------------------------|-------------------------||-----------||
           >      >                 >      >


  4/4  x 4
G|----------------------|-------------------|-----------------------------|
D|*---------------------|-------------------|-----------------------------|
A|----------------------|-------------------|-----------------------------|
E|*-(1)-1-1-1--1-1-1-1--|-1-1-1-1--0-3-5-0--|-(0)-00--0--00--0--00--0--00-|
B|----------------------|-------------------|-----------------------------|

                             x 3
G-------------------------||--------|-------------------|
D-----------------------*-||*-------|-------------------|
A-------------------------||--------|-------------------|
E-0--00--0--00--0-0-0-1-*-||*-(1)---|-(1)------0-3-5-0--|
B-------------------------||--------|-------------------|

G------------------------------|-------------------------||
D------------------------------|-----------------------*-||
A------------------------------|-------------------------||
E-(0)--00--0--00--0--00--0--00-|-0--00--0--00--0-0-0-1-*-||
B------------------------------|-------------------------||

                              Double time feel
G-------|-------------------||--------|--------|--------|--------|
D-------|-------------------||--------|--------|--------|--------|
A-------|-------------------||--------|--------|--------|--------|
E-(1)---|-(1)------0-3-5-0--||--------|--------|-0------|--------|
B-------|-------------------||--------|--------|--------|--------|
                         >                       >


                                          x 4
G|-----------------|-------------------||------------------|
D|*----------------|-----------------*-||*-----------------|
A|-----------------|-------7---6-5-----||------------------|
E|*-0---7-----6----|-7-------------7-*-||*-0-0-7-0-0-6-0-0-|
B|-----------------|-------------------||------------------|
    1 & 2 & 3 & 4 &  1 & 2 & 3 & 4 &
    >   >     >      >     >


G-------------------||--------------------|--------------------||
D-----------------*-||--------------------|--------------------||
A-------7---6-5-----||-7-6-5-----7-6-5----|-7-6-5-----7-6-5----||
E-7-0-0---------7-*-||--------6---------6-|--------6---------3-||
B-------------------||--------------------|--------------------||


  Repeat whole phrase x 3
G|------------------|-----------------|-----|-----|--------------------|
D|*-----------------|-----------------|-----|-----|--------------------|
A|------------------|-------7---6-5---|--%--|--%--|-7-6-5-----7-6-5----|
E|*-0-0-7-0-0-6-0-0-|-7-0-0---------7-|-----|-----|--------6---------6-|
B|------------------|-----------------|-----|-----|--------------------|

G---------------------||--------------------|----------------------|-----||
D--------------------*||--------------------|----------------------|-----||
A-7-6-5-----7-6-5-----||-7-6-5-----7-6-5----|-7-6-5-----7-6-5------|-----||
E--------6---------3-*||--------6---------6-|--------6---------6-3-|-0---||
B---------------------||--------------------|----------------------|-----||
                                                                     >
and this is one of the easiest songs from that album!




________________________________________________________________________________

Almost there ...

Sign in to get your own page with links to favourite songs and more. You are just one click away...

Login with Facebook Login with Google