Guitar Tabs Explorer
Megadeth bass tabs for Elysian fields

Elysian Fields bass tab


Be the first to rate

Elysian Fields bass tab by Megadeth

Bass tabs

Print
Title: Elysian Fields
Album: Youthanasia
Tuning: 5 String Standard - 1/2 step down (A# D# G# C# F#)


   Intro:                                                                Verse 1:
F#|------------------------------|--------|------------------------------|---------------------------------|
C#|------------------------------|--------|------------------------------|---------------------------------|
G#|------------------------------|--------|------------------------------|---------------------------------|
D#|--------------------------0---|--------|--------------------------5---|-----3---0-------0---0---0---0---|
A#|------------------------------|--------|------------------------------|---------------------------------|


F#|---------------------------------|---------------------------------|---------------------------------|
C#|---------------------------------|---------------------------------|---------------------------------|
G#|---------------------------------|---------------------------------|---------------------------------|
D#|-0---0---0---0---0---0---0---5---|-----3---0-------0---0---0---1---|-----1---1---3-------3---3---5---|
A#|---------------------------------|---------------------------------|---------------------------------|


F#|---------------------------------|---------------------------------|---------------------------------|
C#|---------------------------------|---------------------------------|---------------------------------|
G#|---------------------------------|---------------------------------|---------------------------------|
D#|-----3---0-------0---0---0---0---|-0---0---0---0---0---0---0---5---|-----3---0-------0---0---0---1---|
A#|---------------------------------|---------------------------------|---------------------------------|


F#|---------------------------------|---------------------------------|---------------------------------|
C#|---------------------------------|---------------------------------|---------------------------------|
G#|---------------------------------|---------------------------------|---------------------------------|
D#|-----1---1---3---3---3---3---5---|-----3---0-------0---0---0---0---|-0---0---0---0---0---0---0---5---|
A#|---------------------------------|---------------------------------|---------------------------------|


F#|---------------------------------|---------------------------------|---------------------------------|
C#|---------------------------------|---------------------------------|---------------------------------|
G#|---------------------------------|---------------------------------|---------------------------------|
D#|-----3---0-------0---0---0---1---|-----1---1---3-------3---3---5---|-----3---0-------0---0---0---0---|
A#|---------------------------------|---------------------------------|---------------------------------|


F#|---------------------------------|---------------------------------|---------------------------------|
C#|---------------------------------|---------------------------------|---------------------------------|
G#|---------------------------------|---------------------------------|---------------------------------|
D#|-0---0---0---0---0---0---0---5---|-----3---0-------0---0---0---1---|-----1---1---3-------3---3---3---|
A#|---------------------------------|---------------------------------|---------------------------------|

   Pre-Chorus 1:
F#|---------------------------------|---------------------------------|---------------------------------|
C#|-4-------------------------------|---------------------------------|-4-------------------------------|
G#|-----4---0---3-------0-----------|-----0-------3-------0-----------|-----4---0---3-------0-----------|
D#|-------------------------0---2---|---------2---------------2---0---|-------------------------0---2---|
A#|---------------------------------|---------------------------------|---------------------------------|


F#|---------------------------------|---------------------------------|---------------------------------|
C#|---------------------------------|-4-------------------------------|---------------------------------|
G#|-----0-------3-------0-----------|-----4---0---3-------0-----------|-----0-------3-------0-----------|
D#|---------2---------------2---0---|-------------------------0---2---|---------2---------------2---0---|
A#|---------------------------------|---------------------------------|---------------------------------|

                                                                       Chorus 1:
F#|---------------------------------|---------------------------------|---------------------------------|
C#|-4-------------------------------|---------------------------------|---------------------------------|
G#|-----4---0---3-------0-----------|-----0---------------0-----------|---------------------------------|
D#|-------------------------0---2---|---------2---1-----------1---0---|-0---0---0---0---0---0---2---2---|
A#|---------------------------------|---------------------------------|---------------------------------|


F#|---------------------------------|---------------------------------|---------------2---0-----------------|
C#|---------------------------------|---------------------------------|-----------------------2---0---------|
G#|---------------------------------|-------------------------0---0---|-0---0---3--4------------------3--4--|
D#|-2---2---2---2---2---2---2---2---|-3---3---3---3---3---3-----------|-------------------------------------|
A#|---------------------------------|---------------------------------|-------------------------------------|


F#|---------------------------------|-----------------7---6-----------|---------------------------------|
C#|---------------------------------|-------------------------7-------|---------------------------------|
G#|---------------------------------|-----------------------------7---|-------------------------0---0---|
D#|-0---0---0---0---0---0---2---2---|-2---2---2---2-------------------|-3---3---3---3---3---3-----------|
A#|---------------------------------|---------------------------------|---------------------------------|


F#|---------------2---0-----------------|---------------------------------|---------------------5-------7---|
C#|-----------------------2---0---------|---------------------------------|-------------0---7-------7-------|
G#|-0---0---3--4------------------3--4--|---------------------------------|---------------------------------|
D#|-------------------------------------|-0---0---0---0---0---0---2---2---|-2---2---2-----------------------|
A#|-------------------------------------|---------------------------------|---------------------------------|


F#|---------------------------------|-------------2---0-----------------|---------------------------------|
C#|---------------------------------|---------------------2---0---------|---------------------------------|
G#|-------------------------0---0---|-0---0---4-------------------3--4--|---------------------------------|
D#|-3---3---3---3---3---3-----------|-----------------------------------|-0-------------------------------|
A#|---------------------------------|-----------------------------------|-------------4-----------3-------|


F#|---------------------------------|---------------------------------|---------------------------------|
C#|---------------------------------|---------------------------------|---------------------------------|
G#|---------------------------------|-------------------------0-------|-----0---2---0---3---0---5-------|
D#|---------------------------------|---------------------------------|-----------------------------5---|
A#|-----2-----------2---2---2-------|-1-----------0-------------------|---------------------------------|

   Verse 2:
F#|---------------------------------|---------------------------------|---------------------------------|
C#|---------------------------------|---------------------------------|---------------------------------|
G#|---------------------------------|---------------------------------|---------------------------------|
D#|-----3---0-------0---0---0---0---|-0---0---0---0---0---0---0---5---|-----3---0-------0---0---0---1---|
A#|---------------------------------|---------------------------------|---------------------------------|


F#|---------------------------------|---------------------------------|---------------------------------|
C#|---------------------------------|---------------------------------|---------------------------------|
G#|---------------------------------|---------------------------------|---------------------------------|
D#|-----1---1---3-------3---3---5---|-----3---0-------0---0---0---0---|-0---0---0---0---0---0---0---5---|
A#|---------------------------------|---------------------------------|---------------------------------|


F#|---------------------------------|---------------------------------|---------------------------------|
C#|---------------------------------|---------------------------------|---------------------------------|
G#|---------------------------------|---------------------------------|---------------------------------|
D#|-----3---0-------0---0---0---1---|-----1---1---3---3---3---3---5---|-----3---0-------0---0---0---0---|
A#|---------------------------------|---------------------------------|---------------------------------|


F#|---------------------------------|---------------------------------|---------------------------------|
C#|---------------------------------|---------------------------------|---------------------------------|
G#|---------------------------------|---------------------------------|---------------------------------|
D#|-0---0---0---0---0---0---0---5---|-----3---0-------0---0---0---1---|-----1---1---3-------3---3---5---|
A#|---------------------------------|---------------------------------|---------------------------------|


F#|---------------------------------|---------------------------------|---------------------------------|
C#|---------------------------------|---------------------------------|---------------------------------|
G#|---------------------------------|---------------------------------|---------------------------------|
D#|-----3---0-------0---0---0---0---|-0---0---0---0---0---0---0---5---|-----3---0-------0---0---0---1---|
A#|---------------------------------|---------------------------------|---------------------------------|

                                     Pre-Chorus 2:
F#|---------------------------------|---------------------------------|---------------------------------|
C#|---------------------------------|-4-------------------------------|---------------------------------|
G#|---------------------------------|-----4---0---3-------0-----------|-----0-------3-------0-----------|
D#|-----1---1---3---3---3---3---3---|-------------------------0---2---|---------2---------------2---0---|
A#|---------------------------------|---------------------------------|---------------------------------|


F#|---------------------------------|---------------------------------|---------------------------------|
C#|-4-------------------------------|---------------------------------|-4-------------------------------|
G#|-----4---0---3-------0-----------|-----0-------3-------0-----------|-----4---0---3-------0-----------|
D#|-------------------------0---2---|---------2---------------2---0---|-------------------------0---2---|
A#|---------------------------------|---------------------------------|---------------------------------|


F#|---------------------------------|---------------------------------|---------------------------------|
C#|---------------------------------|-4-------------------------------|---------------------------------|
G#|-----0-------3-------0-----------|-----4---0---3-------0-----------|-----0---------------0-----------|
D#|---------2---------------2---0---|-------------------------0---2---|---------2---1-----------1---0---|
A#|---------------------------------|---------------------------------|---------------------------------|

   Chorus 2:
F#|---------------------------------|---------------------------------|---------------------------------|
C#|---------------------------------|---------------------------------|---------------------------------|
G#|---------------------------------|---------------------------------|-------------------------0---0---|
D#|-0---0---0---0---0---0---2---2---|-2---2---2---2---2---2---2---2---|-3---3---3---3---3---3-----------|
A#|---------------------------------|---------------------------------|---------------------------------|


F#|---------------2---0-----------------|---------------------------------|-----------------7---6-----------|
C#|-----------------------2---0---------|---------------------------------|-------------------------7-------|
G#|-0---0---3--4------------------3--4--|---------------------------------|-----------------------------7---|
D#|-------------------------------------|-0---0---0---0---0---0---2---2---|-2---2---2---2-------------------|
A#|-------------------------------------|---------------------------------|---------------------------------|


F#|---------------------------------|---------------2---0-----------------|---------------------------------|
C#|---------------------------------|-----------------------2---0---------|---------------------------------|
G#|-------------------------0---0---|-0---0---3--4------------------3--4--|---------------------------------|
D#|-3---3---3---3---3---3-----------|-------------------------------------|-0---0---0---0---0---0---2---2---|
A#|---------------------------------|-------------------------------------|---------------------------------|


F#|---------------------5-------7---|---------------------------------|---------------2---0-----------------|
C#|-------------0---7-------7-------|---------------------------------|-----------------------2---0---------|
G#|---------------------------------|-------------------------0---0---|-0---0---3--4------------------3--4--|
D#|-2---2---2-----------------------|-3---3---3---3---3---3-----------|-------------------------------------|
A#|---------------------------------|---------------------------------|-------------------------------------|


F#|---------------------------------|---------------------------------|---------------------------------|
C#|---------------------------------|---------------------------------|---------------------------------|
G#|---------------------------------|---------------------------------|-------------------------0-------|
D#|-0-------------------------------|---------------------------------|---------------------------------|
A#|-------------4-----------3-------|-----2-----------2---2---2-------|-1-----------0-------------------|

                                     Solo:
F#|---------------------------------|---------------------------------|---------------------------------|
C#|---------------------------------|---------------------------------|---------------------------------|
G#|-----0---2---0---3---2---5---6---|-7---6---7-----------------------|-------------------------5---6---|
D#|---------------------------------|---------------------7---7---10--|-----5---4---3-------7-----------|
A#|---------------------------------|---------------------------------|---------------------------------|


F#|---------------------------------|---------------------------------|---------------------------------|
C#|---------------------------------|---------------------------------|---------------------------------|
G#|-7---6---7-----------------------|-------------------------5---6---|-7---6---7-----------------------|
D#|---------------------7---7---10--|-----5---4---3-------7-----------|---------------------7---7---10--|
A#|---------------------------------|---------------------------------|---------------------------------|


F#|---------------------------------|---------------------------------|---------------------------------|
C#|---------------------------------|---------------------------------|---------------------------------|
G#|-------------------------5---6---|-7---6---7-----------------------|-------------------------5---6---|
D#|-----5---4---3-------7-----------|---------------------7---7---10--|-----5---4---3-------7-----------|
A#|---------------------------------|---------------------------------|---------------------------------|

   Chorus 3:
F#|---------------------------------|---------------------------------|---------------------------------|
C#|---------------------------------|---------------------------------|---------------------------------|
G#|---------------------------------|---------------------------------|-------------------------0---0---|
D#|-0---0---0---0---0---0---2---2---|-2---2---2---2---2---2---2---2---|-3---3---3---3---3---3-----------|
A#|---------------------------------|---------------------------------|---------------------------------|


F#|---------------2---0-----------------|---------------------------------|-----------------7---6-----------|
C#|-----------------------2---0---------|---------------------------------|-------------------------7-------|
G#|-0---0---3--4------------------3--4--|---------------------------------|-----------------------------7---|
D#|-------------------------------------|-0---0---0---0---0---0---2---2---|-2---2---2---5-------------------|
A#|-------------------------------------|---------------------------------|---------------------------------|


F#|---------------------------------|---------------2---0-----------------|---------------------------------|
C#|---------------------------------|-----------------------2---0---------|---------------------------------|
G#|-------------------------0---0---|-0---0---3--4------------------3--4--|---------------------------------|
D#|-3---3---3---3---3---3-----------|-------------------------------------|-0---0---0---0---0---0---2---2---|
A#|---------------------------------|-------------------------------------|---------------------------------|


F#|---------------------5-------7---|---------------------------------|---------------2---0---------------|
C#|-------------0---7-------7-------|---------------------------------|-----------------------2---0-------|
G#|---------------------------------|-------------------------0---0---|-0---0---3--4------------------3---|
D#|-2---2---2-----------------------|-3---3---3---3---3---3-----------|-----------------------------------|
A#|---------------------------------|---------------------------------|-----------------------------------|


F#|---------------------------------|---------------------------------|---------------------------------|
C#|---------------------------------|---------------------------------|---------------------------------|
G#|---------------------------------|---------------------------------|-------------------------0-------|
D#|-0-------------------------------|---------------------------------|---------------------------------|
A#|-------------4-----------3-------|-----2-----------2---2---2-------|-1-----------0-------------------|


F#|---------------------------------|---------------------------------|---------------------------------|
C#|-------------------------0---2---|---------------------------------|---------------------------------|
G#|-----0---2---0---3---2-----------|---------------------------------|---------------------------------|
D#|---------------------------------|-0---0---0---0---0---0---2---2---|-2---2---2---2---2---2---2---2---|
A#|---------------------------------|---------------------------------|---------------------------------|


F#|---------------------------------|---------------2---0-----------------|---------------------------------|
C#|---------------------------------|-----------------------2---0---------|---------------------------------|
G#|-------------------------0---0---|-0---0---3--4------------------3--4--|---------------------------------|
D#|-3---3---3---3---3---3-----------|-------------------------------------|-0---0---0---0---0---0---2---2---|
A#|---------------------------------|-------------------------------------|---------------------------------|


F#|-------------------7---6-----------|---------------------------------|-------------2---0-----------------|
C#|---------------------------7-------|---------------------------------|---------------------2---0---------|
G#|-------------------------------7---|-------------------------0---0---|-0---0---4-------------------3--4--|
D#|-2---2---2--5--5-------------------|-3---3---3---3---3---3-----------|-----------------------------------|
A#|-----------------------------------|---------------------------------|-----------------------------------|


F#|---------------------------------|---------------------5-------7---|---------------------------------|
C#|---------------------------------|-------------0---7-------7-------|---------------------------------|
G#|---------------------------------|---------------------------------|-------------------------0---0---|
D#|-0---0---0---0---0---0---2---2---|-2---2---2-----------------------|-3---3---3---3---3---3-----------|
A#|---------------------------------|---------------------------------|---------------------------------|

                                       Outro:
F#|-------------2---0-----------------|---------------------------------|---------------------------------|
C#|---------------------2---0---------|---------------------------------|---------------------------------|
G#|-0---0---3-------------------3--4--|-7-----------6-----------5-------|-----4---------------------------|
D#|-----------------------------------|---------------------------------|---------------------------------|
A#|-----------------------------------|---------------------------------|---------------------------------|


F#|---------------------------------|--------|--------|--------|--------|
C#|---------------------------------|--------|--------|--------|--------|
G#|-3-----------2-----------0-------|--------|--------|--------|--------|
D#|---------------------------------|--------|--------|--------|--------|
A#|---------------------------------|--------|--------|--------|--------|

Comment this song and these bass tabs

Do you have corrections, comments on the bass tabs, thoughts about the song or a message to the author? Write them below.