Log in

One click and you are in

Login with Facebook Login with Google

Why sign up and log in

Guitar Tabs Explorer
Megadeth guitar tabs for Ecstacy

Guitar tabs

Song-Ecstasy
Band-Megadeth
Album-Risk
Tabbed by: Robert Johnstone

STANDARD TUNING
INTRO/RIFF(strum this part, but listen to the song for the strumming pattern)

e---1---------1----------1---------1--------1---------1--------1----------------------
B-----3---------3----------3---------3--------3---------3---------3-------------------
G-------2----------2---------2---------2--------2---------2---------2-----------------
D-------------------------------------------------------------------------------------
A-------------------------------------------------------------------------------------
E-------------------------------------------------------------------------------------

e----1-------1-------1--------1-------------------------------------------------------
B------3-------3-------3--------3-----------------------------------------------------
G--------3-------3-------3--------3---------------------------------------------------
D-------------------------------------------------------------------------------------
A-------------------------------------------------------------------------------------
A chord diagramE MajorE --- --------------------------------------------------------------------------------
While the intro is playing a little kind of solo is played by Dave Mustaine


E-----------------PICKSLIDE-----------------------------------------------------------


CHORUS(THIS MAY BE A chord diagramA majorA BIT WRONG)

e-------------------------------------------------------------------------------------
B-------------------------------------------------------------------------------------
G----------3------------------------5-------------------------------------------------
D------3--------------3--------5------------5-----------------------------------------
A--1--------------3--------3-------------5--------------------------------------------
E-------------1------------------------3----------------------------------------------


THEN NOW COMES THE SOLO,BUT I COULDN’T FIGURE IT OUT

SONG STRUCTURE:

INTRO
PICKSLIDE

CHORUS

INTRO
PICKSLIDE

CHORUS

SOLO


IF THERE ARE ANY MISTAKES PLEASE FIX THEM
OH THE NEW MEGADETH ALBUM IS OUT! A chord diagramA majorA REMAKE OF KILLING IS MY BUSINESS…AND BUSINESS IS GOOD!

Almost there ...

Sign in to get your own page with links to favourite songs and more. You are just one click away...

Login with Facebook Login with Google