Log in

One click and you are in

Login with Facebook Login with Google

Why sign up and log in

Guitar Tabs Explorer
Megadeth guitar tabs for Duke nukem theme (Ver. 2)

Guitar tabs

Album:	-

MEGADETH - DUKE NUKEM THEME


E------------------|
B------------------|
G------------------|
D--222-222-222-333-|  (x2)
A--222-222-222-333-|
E--000-000-000-111-|

E-----------------------------------------------               ------|
B-------------- (3 times) ----------------------               ------|
G-----------------------------------------5-5-5-               -5-55-|
D--2-5-7------7-9------9-10---------------5-5-5-  4th time ->  -5-55-|
A--2-5-7------7-9------9-10-----3-2-------3-5-3-               -5-35-|
E--0-3-5-00-0-5-7-00-0-7--8-000-----5-3-5-------               ------|
      PM .. .     .. .      ...

E------------------|
B------------------|
G------------------|
D--333-333-333-333-|
A--333-333-333-333-|
E--111-111-111-111-|

E--------------------------------------|----------------------------------|
B--------------------------------------|----------------------------------|
G--------------------------------------|----------------------------------|
D--------------------------------------|----------------------------------|
A------2------0------2------0----------|-----2------0------2--------------|
E--0-0-0--0-0-0--0-0-0--0-0-0--0-0-000-|-0-0-0--0-0-0--0-0-0--0-0-000-000-|
 PM. .    . .    . .    . .    . . ...   . .    . .    . .    . . ... ...

E--------------------------------------|-----------------------------------|
B--------------------------------------|-----------------------------------|
G--------------------------------------|-----------------------------------|
D--------------------------------------|-----------------------------------|
A------2------0------2------0----------|-----2------0----------------------|
E--0-0-0--0-0-0--0-0-0--0-0-0--0-0-000-|-0-0-0--0-0-0--0-0-000-000-000-000-|
 PM. .    . .    . .    . .    . . ...   . .    . .    . . ... ... ... ...E------------------------------------------------------|
B------------------------------------------------------|
G--4---5--2-2-------4b>(1/2)= up
D-------------5-4-5---------------5-5-2--5----4--------|           ,
A------------------------------------------------------|
E------------------------------------------------------|


E---------------------------------------------------------------------|
B--12-/-13--10-10----------12b>(1/2)
G-----------------12-11-12------------------12-12-9--12-----11--------|
D---------------------------------------------------------------------|
A---------------------------------------------------------------------|
E---------------------------------------------------------------------|

E------------------|
B------------------|
G------------------|
D--333-333-333-333-|
A--333-333-333-333-|
E--111-111-111-111-

Repeat the rhythm parts several times.

Other versions of Duke Nukem Theme

Duke nukem themeTabs

Almost there ...

Sign in to get your own page with links to favourite songs and more. You are just one click away...

Login with Facebook Login with Google