Search tabs and chords

Search for song, artist or band

Log in

One click and you are in

Login with Facebook Login with Google

Why sign up and log in

Guitar Tabs Explorer
Megadeth bass tabs for Diadems

Bass tabs with lyrics

Tuning: Eb (1/2 step down)




LEGEND:
r = rest
/ = slide up
h = hammer on
s = 16th note (appears above bar)
a = acciaccature (appears above bar)
INTRO:
        (Rest x8)
Gb |-----------------|
Db |-----------------|
Ab |-----------------|
Eb |-r---------------|
     1 & 2 & 3 & 4 &


VERSE 1:
        (Rest x8)
Gb |-----------------|
Db |-----------------|
Ab |-----------------|
Eb |-r---------------|
     1 & 2 & 3 & 4 &


CHORUS 1 (x2):                                            _________________ _________________
                                                         /1                /2
Gb |-----------------|-----------------|-----------------|-----------------|-----------------|
Db |-----------------|-----------------|-----------4-----|-----------------|-----------4-----|
Ab |-----------------|-----------------|--------/5---7---|-----------------|--------/5---7---|
Eb |-3---3-0-2-3-2-0-|-6--6--6-5-r---3-|-0-----0-------7-|-0-----0/3-3-2-0-|-0-----0-------7-|
     1 & 2 & 3 & 4 &   1 & 2 & 3 & 4 &   1 & 2 & 3 & 4 &   1 & 2 & 3 & 4 &   1 & 2 & 3 & 4 &

VERSE 2 (x2):                                             _________________ _________________
                                                         /1                /2
Gb |-----------------|-----------------|-----------------|-----------------|-----------------|
Db |--------------/7-|-5--/5-5-4-4-----|-----------4-----|-----------4-----|-----------------|
Ab |---------5-5-4---|-------------5-2-|--------/5---7---|--------/5---7---|-----------------|
Eb |-0-----0---------|-----------------|-0-----0-------7-|-0-----0-------7-|-0-----0/3-3-2-0-|
     1 & 2 & 3 & 4 &   1 & 2 & 3 & 4 &   1 & 2 & 3 & 4 &   1 & 2 & 3 & 4 &   1 & 2 & 3 & 4 &


CHORUS 2:

Gb |-----------------|-----------------|-----------------|-----------------|
Db |-----------------|-----------------|-----------4-----|-----------------|
Ab |-----------------|-----------------|--------/5---7---|-----------------|
Eb |-3---3-0-2-3-2-0-|-6--6--6-5-r---3-|-0-----0-------7-|-0-----0/3-3-2-0-|
     1 & 2 & 3 & 4 &   1 & 2 & 3 & 4 &   1 & 2 & 3 & 4 &   1 & 2 & 3 & 4 &

Gb |-----------------|-----------------|
Db |-----------------|-----------------|
Ab |-----------------|-----------------|
Eb |-3---3-0-2-3-2-0-|-6--6--6-5-r---3-|
     1 & 2 & 3 & 4 &   1 & 2 & 3 & 4 &


BRIDGE:
                  ( x3 )
Gb |-----------------|-----------------||-----------------|-----------------|
Db |-----------------|-----------------||-----------------|-----------------|
Ab |---------2-------|-----------------||---------2-------|-----------------|
Eb |-0-----0-------2-|-3-2-3-0-2-3-2-1-||-0-----0-------2-|-3-2-3-0-2-3-4-5-|
     1 & 2 & 3 & 4 &   1 & 2 & 3 & 4 &    1 & 2 & 3 & 4 &   1 & 2 & 3 & 4 &


NEW MUSICAL DIRECTION (Double-time feel):
                                                                   ss  ss
Gb |-----------------|-----------------|-----------------|-----------------|
Db |-----------------|-----------------|-----------------|-----------------|
Ab |-----------------|-----------------|-----------------|---------------8-|
Eb |-0-r-------------|-r---------------|-r---------------|-r-------776-66--|
     1 & 2 & 3 & 4 &   1 & 2 & 3 & 4 &   1 & 2 & 3 & 4 &   1 & 2 & 3 & 4 &

       ss      ss        ss    ss          ss      ss        ss    ss  ss
Gb |-----------------|-----------------|-----------------|-----------------|
Db |-----------------|-----------------|-----------------|-----------------|
Ab |-7-777-7---------|-5-555-5-------8-|-7-777-7---------|-5-555-5-------8-|
Eb |---------6-666-6-|---------777-6---|---------6-666-6-|---------776-66--|
     1 & 2 & 3 & 4 &   1 & 2 & 3 & 4 &   1 & 2 & 3 & 4 &   1 & 2 & 3 & 4 &

       ss      ss        ss    ss        ah
Gb |-----------------|-----------------|-68--------------|-----------------|
Db |-----------------|-----------------|-----7-----------|-------------8---|
Ab |-7-777-7---------|-5-555-5-------8-|---------6-------|---------7-------|
Eb |---------6-666-6-|---------777-6---|-------------5---|-3---5-----------|
     1 & 2 & 3 & 4 &   1 & 2 & 3 & 4 &   1 & 2 & 3 & 4 &   1 & 2 & 3 & 4 &


NEW VERSE:
                  ( x4 )
       ss      ss        ss    ss
Gb |-----------------|-----------------|
Db |-----------------|-----------------|
Ab |-7-777-7---------|-5-555-5-------8-|
Eb |---------6-666-6-|---------777-6---|
     1 & 2 & 3 & 4 &   1 & 2 & 3 & 4 &


INTERLUDE:
               ss        ss                ss      ss        ss
Gb |-----------------|-----------------|-----------------|-----------------|
Db |-----------------|-----------------|-----------------|-----------------|
Ab |-7-7-7-7---------|-----------------|-7-777-7---------|-----------------|
Eb |---------6-666-6-|-5-555-5-3-3-2-3/|---------6-666-6-|-5-555-5-3-3-2-3/|
     1 & 2 & 3 & 4 &   1 & 2 & 3 & 4 &   1 & 2 & 3 & 4 &   1 & 2 & 3 & 4 &

       ss      ss        ss                ss      ss        ss
Gb |-----------------|-----------------|-----------------|-----------------|
Db |-----------------|-----------------|-----------------|-----------------|
Ab |-9-999-9---------|-----------------|-9-999-9---------|-----------------|
Eb |---------8-888-8-|-7-777-7-5-5-4-5/|---------8-888-8-|-7-777-7-5-4-5-5-|
     1 & 2 & 3 & 4 &   1 & 2 & 3 & 4 &   1 & 2 & 3 & 4 &   1 & 2 & 3 & 4 &

       ss      ss        ss      ss
Gb |-----------------|-----------------|-----------------|-----------------|
Db |-5-555-5---------|-----------------|-5-5-------------|-5---5---5---5---|
Ab |---------4-444-4-|---------4-444-4-|-----4-4-----4-4-|---4---4---4---4-|
Eb |-----------------|-3-333-3---------|---------3-3-----|-----------------|
     1 & 2 & 3 & 4 &   1 & 2 & 3 & 4 &   1 & 2 & 3 & 4 &   1 & 2 & 3 & 4 &


OUTRO (half-time feel):
    6/4                   ( x6 )                         (Let ring)
Gb |-------------------------|-------------------------||-----------------|
Db |-5-----5-4-0-5-4-5-------|-5-----5-4-0-5-4-5-------||-----------------|
Ab |---7---------------7-----|---7---------------7-----||-----------------|
Eb |-----0---------------0-r-|-----0---------------0-r-||-0---------------|
     1 & 2 & 3 & 4 & 5 & 6 &   1 & 2 & 3 & 4 & 5 & 6 &    1 & 2 & 3 & 4 &

Almost there ...

Sign in to get your own page with links to favourite songs and more. You are just one click away...

Login with Facebook Login with Google