Log in

One click and you are in

Login with Facebook Login with Google

Why sign up and log in

Guitar Tabs Explorer
Megadeth bass tabs for Deadly nightshade

Bass tabs

Intro 4x:


G|------------------|
D|------------------|
A|------------------|
E|-0-5^6-010-03-2-1-|
Pre-Verse:


G|-----------------------------|
D|-----------------------------|
A|-----------------------------|
E|-0-0-123-0-0-123-0-0-123-01-1|


G|-----------------------------|
D|-----------------------------|
A|-----------------------------|
E|-0-0-123-0-0-123-0-0-123-1---|



Verse 2x:

G|-----------------------------|
D|-----------------------------|
A|--------------------------1-1|
E|-0-0-123-0-0-123-0-0-123-0-0-|

G|-----------------------------|
D|-----------------------------|
A|--------------------------5-4|
E|-0-0-123-0-0-123-0-0-123-0-0-|


G|-----------------------------|
D|-----------------------------|
A|-----------------------------|
E|-0-0-123-0-0-123-0-0-123-01-1|


G|-----------------------------|
D|-----------------------------|
A|-----------------------------|
E|-0-0-123-0-0-123-0-0-123-6-1-|


CHORUS 4x:


G|------------------|
D|------------------|
A|------------------|
E|-0-5^6-010-03-2-1-|


Pre-Verse


G|-----------------------------|
D|-----------------------------|
A|-----------------------------|
E|-0-0-123-0-0-123-0-0-123-01-1|


G|-----------------------------|
D|-----------------------------|
A|-----------------------------|
E|-0-0-123-0-0-123-0-0-123/8---|


Verse 2x:


G|-----------------------------|
D|-----------------------------|
A|--------------------------1-1|
E|-0-0-123-0-0-123-0-0-123-0-0-|


G|-----------------------------|
D|-----------------------------|
A|--------------------------5-4|
E|-0-0-123-0-0-123-0-0-123-0-0-|


G|-----------------------------|
D|-----------------------------|
A|-----------------------------|
E|-0-0-123-0-0-123-0-0-123-01-1|


G|-----------------------------|
D|-----------------------------|
A|-----------------------------|
E|-0-0-123-0-0-123-0-0-123-6-1-|



CHORUS 7x:


G|------------------|
D|------------------|
A|------------------|
E|-0-5^6-010-03-2-1-|


G|--------------------|
D|--------------------|
A|--------------------|
E|-0-5^6-010-3333-2222|


Bridge 4x:


G|--------------|
D|--------------|
A|--------------|
E|-000-6665~-35-|


G|-------|
D|-------|
A|-------|
E|-3-2-1-|


CHORUS 2x:


G|------------------|
D|------------------|
A|------------------|
E|-0-5^6-010-03-2-1-|


Solo 4x:


G|----------------------------------------------------------------|
D|----------------------------------------------------------5-----|
A|-765-------------765-------------765-------------765---565-7----|
E|----0-00-0-0-000----0-00-0-0-000----0-00-0-0-000----0-0---------|


G|--------------------------------------------------|
D|--------------------------------------------------|
A|--------------------------------------------------|
E|-222-2-22-2-0-333-3-335-0-222-222222-0-333-33025-3|


G|----------------------------------|
D|----------------------------------|
A|----------------------------------|
E|-00000003-3333333-00000735-003-322|


G|----------------------------------|
D|----------------------------------|
A|----------------------------------|
E|-00000003-3333333-00000735-003-320|


G|----------------------------------|
D|----------------------------------|
A|----------------------------------|
E|-22222225-5555555-2222285777-5-53-|


G|----------------------------------|
D|----------------------------------|
A|----------------------------------|
E|-22222225-5555555-22222857~-3-2-1-|


CHORUS 8x:


G|------------------|
D|------------------|
A|------------------|
E|-0-5^6-010-03-2-1-|


CHORUS 4x:


G|----------------------------------------------------------------|
D|----------------------------------------------------------5-----|
A|-765-------------765-------------765-------------765---565-7----|
E|----0-00-0-0-000----0-00-0-0-000----0-00-0-0-000----0-0---------|

Almost there ...

Sign in to get your own page with links to favourite songs and more. You are just one click away...

Login with Facebook Login with Google