Guitar Tabs Explorer
Megadeth bass tabs for Dawn patrol

Dawn Patrol bass tab


3.5 / 5 [4 votes]

Dawn Patrol bass tab by Megadeth

Bass tabs

Print
Name:Andrea Bolognesi (male)
     andrea.bolognesi@bo.nettuno.it

               (Rust in peace)




            Bass fig.1                                     Ú 1.ÄÄÄÄÄÄÄÄÄÄÄÄÄÄ
G-|-------||-----------------------------------------------|1-3-----1-3------||
D-|-------||*-0/2-----2--2-2-2/3-----3--3-3-3/2-----2--2-2-|----2-1-----2-1-*||
A-|-------||*----------------------------------------------|----------------*||
E-|---0---||-------0--------------0--------------0---------|-----------------||

  Ú 2.ÄÄÄÄÄÄÄÄÄÄÄÄÄÄÄÄÄÄ
G-|---------------------||
D-|---------------------||
A-|--1--3---------------||
E-|--------5----3----2--||

            Bass fig.2                                     Ú 1.ÄÄÄÄÄÄÄÄÄÄÄÄÄÄ
G-|-------||-----------------------------------------------|1-3-----1-3------||
D-|-------||*-0/2-----2--2-2-2/3-----3--3-3-3/2-----2--2-2-|----2-1-----2-1-*||
A-|-------||*----------------------------------------------|----------------*||
E-|-------||-------0--------------0--------------0---------|-----------------||

  Ú 2.ÄÄÄÄÄÄÄÄÄÄÄÄÄÄÄÄÄÄ
G-|---------------------||
D-|---------------------||
A-|--1--3---------------||
E-|--------5----3-------||


  Play (fig.1 + fig.2) * 4

                                                                      Ciao

Other versions of Dawn Patrol

Dawn patrol (Ver. 2)Bass tabs
Dawn patrol (Ver. 3)Bass tabs

Comment this song and these bass tabs

Do you have corrections, comments on the bass tabs, thoughts about the song or a message to the author? Write them below.