Search tabs and chords

Search for song, artist or band

Log in

One click and you are in

Login with Facebook Login with Google

Why sign up and log in

Guitar Tabs Explorer
Megadeth bass tabs for Crown of worms

Bass tabs

-----------------------------------------------------------------------------
			     Crown of Worms –Megadeth
-----------------------------------------------------------------------------

Tabbed By: Nelson
e-mail: njk1996@aol.com

Tuning: Standard
This is probably my favorite Megadeth song, and I didn't like the bass tab for it that
was already on this website.  Listen to the song for the rhythm. Please comment if
anything is wrong.  Enjoy!!
Intro:
G|---------------------------|
D|---------------------------|
A|--2------------------------|
E|----2-1-0 (let ring) ------|

G|-----------------------------------|
D|-----------------------------------|
A|------------------2-2-222-4-4-444--|
E|--4-44-44-4-4-44-------------------|

G|-----------------------------------|
D|-----------------------------------|
A|------------------2-2-222----------|
E|--4-44-44-4-4-44----------2-2-222--|

G|-----------------------------------|
D|-----------------------------------|
A|------------------2-2-222-4-4-444--|
E|--4-44-44-4-4-44-------------------|

G|--1-1-1----------------------------|
D|--------4-2------------------------|
A|------------4--2-------------------|
E|-----------------2-1-0-1-2---------|

Verse 1: (X2)
G|-------------------------------------------|
D|-------------------------------------------|
A|------------22222222-----------4444444444--|
E|--444444444----------111111111-------------|

G|-------------------------------------------|
D|-------------------------------------------|
A|------------22222222-----------4444422222--|
E|--444444444----------111111111-------------|

Chorus: (X2)
G|-------------------------------------------|
D|-------------------------------------------|
A|-------------------------------2-----------|
E|--444444-222222-111111-00000-0-------------|





Intro Riff Under Solo:
G|-----------------------------------|
D|-----------------------------------|
A|------------------2-2-222-4-4-444--|
E|--4-44-44-4-4-44-------------------|

G|-----------------------------------|
D|-----------------------------------|
A|------------------2-2-222----------|
E|--4-44-44-4-4-44----------2-2-222--|
G|-----------------------------------|
D|-----------------------------------|
A|------------------2-2-222-4-4-444--|
E|--4-44-44-4-4-44-------------------|

G|--1-1-1----------------------------|
D|--------4-2------------------------|
A|------------4--2-------------------|
E|-----------------2-1-0-1-2---------|

Verse 2: (X2)
G|-------------------------------------------|
D|-------------------------------------------|
A|------------22222222-----------4444444444--|
E|--444444444----------111111111-------------|

G|-------------------------------------------|
D|---------------------333333333-------------|
A|------------22222222-----------2222400000--|
E|--444444444--------------------------------|

Chorus: (Variation on 2nd Time)
G|-------------------------------------------|
D|-------------------------------------------|
A|-------------------------------2-----------|
E|--444444-222222-111111-00000-0-------------|

G|-------------------------------------------|
D|---------4444444---22222222---222-1--------|
A|------------------------------------4------|
E|--444444---------4----------0--------------|

Interlude:
G|-------------------------------------|
D|-------------------------------------|
A|---------2-2-2--4-4-4--4—-4---7-6----|
E|--4-4-4---------------------1--------|

Solo: X2
G|----------------------------------------------------------------------------|
D|------------------------------4-4-4------------6-6--------------6-4-1-------|
A|------------6-6-6--222222222-2-2-2--444444444-4-4-4-2---------2-------4-2-1-|
E|-444444444-4-4-4--------------------------------------44444444--------------|



Outro:
G|----------------------------------------------|
D|----------------------------------------------|
A|-----------222222222-----------4444422222-----| X3
E|-444444444-----------222222222----------------|

G|----------------------------------------------|
D|-4h6-66-66-66-6-6----4h6-66-66-66-6-6---------|
A|----------------------------------------------|
E|----------------------------------------------|

G|----------------------------------------------|
D|----------------------------------------------|
A|-5-4---2-4---4-2---0-2-0----------------------|
E|-----4-----4-----4-------4--------------------|

Almost there ...

Sign in to get your own page with links to favourite songs and more. You are just one click away...

Login with Facebook Login with Google