Search tabs and chords

Search for song, artist or band

Log in

One click and you are in

Login with Facebook Login with Google

Why sign up and log in

Guitar Tabs Explorer
Megadeth guitar tabs for Conquer or die

Guitar tabs

Tuning: D chord diagramDD G chord diagramGG C chord diagramCC F chord diagramFF A chord diagramAA D chord diagramDD


D|-----------------------------------------------------------------------------------
A|----5-------------------5---------------------5-------------------5----------------
F| chord diagramF|F|----------------0---------------------0-------------------0-----------------0------
C| chord diagramC|C|--------2----------2---------2----------2---------2---------2---------2--------2---
G|-----------------------------------------------------------------------------------
D|------------0---------0----------0----------0----------0--------0--------0--------0
D|-----------------------------------------------------------------------------------
A|----5-------------------5---------------------5--------------------5---------------
F| chord diagramF|F|----------------0---------------------0-------------------0-------------------0----
C| chord diagramC|C|--------2----------2---------2----------2---------2---------2----------2--------2--
G|-----------------------------------------------------------------------------------
D|------------0---------0---------0---------0---------0---------0---------0---------0


D|-----------------------------------------------------------------------------------
A|----5-------------------7---------------------8--------------------12--------------
F| chord diagramF|F|----------------0---------------------0-------------------0-------------------0----
C| chord diagramC|C|--------2----------0---------4----------0---------5---------0----------9--------0--
G|-----------------------------------------------------------------------------------
D|------------0---------0---------0---------0---------0---------0---------0---------0


D|-----------------------------------------------------------------------------------
A|----11------------------11--------------------11-------------------11--------------
F| chord diagramF|F|----------------0---------------------0-------------------0-------------------0----
C| chord diagramC|C|--------8----------8---------8----------8---------8---------8---------8---------0--
G|-----------------------------------------------------------------------------------
D|------------0---------0---------0---------0---------0---------0---------0---------0


D|-----------------------------------------------------------------------------------
A|----5-------------------7---------------------8--------------------12--------------
F| chord diagramF|F|----------------0---------------------0-------------------0-------------------0---
C| chord diagramC|C|--------2----------0---------4----------0---------5---------0---------9---------0--
G|-----------------------------------------------------------------------------------
D|------------0---------0---------0---------0---------0---------0---------0---------0

D|-----------------------------------------------------------------------------------
A|----13-------------------10---------------------12-----------------12--------------
F| chord diagramF|F|----------------0---------------------0------------------0--------------------0----
C| chord diagramC|C|--------10--------10-------10-----------0--------9---------9----------9---------0--
G|-----------------------------------------------------------------------------------
D|------------0---------0---------0---------0---------0---------0---------0---------0


D|-----------------------------------------------------------------------------------
A|----11------------------11--------------------8---------------------8--------------
F| chord diagramF|F|----------------0---------------------0-------------------0-------------------0----
C| chord diagramC|C|--------8----------8---------8----------0---------5---------5----------5--------0--
G|-----------------------------------------------------------------------------------
D|------------0---------0---------0---------0---------0---------0---------0---------0


D|-----------------------------------------------------------------------------------
A|----4------------------4-----------------------4--------------------4--------------
F| chord diagramF|F|----------------0---------------------0-------------------2-------------------2----
C| chord diagramC|C|--------1----------1---------1----------0---------1---------1----------1--------1--
G|-----------------------------------------------------------------------------------
D|------------0---------0---------0---------0---------0---------0---------0---------0


D|------------------------0----------------------------------------------------------
A|----4-----------------------------------------4--------------------4---------------
F| chord diagramF|F|----------------0---------------------0-------------------0-------------------2----
C| chord diagramC|C|--------1----------1---------1----------0---------1---------1----------1--------1--
G|-----------------------------------------------------------------------------------
D|------------0---------0---------0---------0---------0---------0---------0---------0


D|---------------0-----------------
A|---------------------------------
F| chord diagramF|F|------2---------------------2----
C| chord diagramC|C|--------1----------1----------1--
G|---------------------------------
D|------------0---------0----------


D|--------------------0------0-----------------------
A|----------------0------0------0--------------------
F| chord diagramF|F|------------0------0--------0------0---------------
C| chord diagramC|C|--------2------2----------------2------2-----------
G|-----------2-------------------------2-------------
D|------0-----------------------------------0--------


D|--------------0----------------0--------------7-------6------------6---------------------------------
A|--------0-----0----------------------------------8----5-------5------------------------------7-------
F| chord diagramF|F|--------------------11/12--------------9--------------6---6----------------------------5-------------
C| chord diagramC|C|---------------------------------------------------------------------------------7-------------------
G|---------------------------------------------------------------------------6-------------------------
D|----0-------------------0-----------------------------0----------------------------------------------


D|--------------0----------------0--------------7-------6------------6------------------------12------
A|--------0-----0----------------------------------8----5-------5-----------------------10------------
F| chord diagramF|F|--------------------11/12--------------9--------------6---6----------------------9------------------
C| chord diagramC|C|--------------------------------------------------------------------------10------------------------
G|----------------------------------------------------------------------------------------------------
D|----0-------------------0-----------------------------0---------------------------------------------


D|--------------0----------------0--------------7-------6------------6---------------------------------
A|--------0-----0----------------------------------8----5-------5------------------------------7-------
F| chord diagramF|F|--------------------11/12--------------9--------------6---6----------------------------5-------------
C| chord diagramC|C|---------------------------------------------------------------------------------7-------------------
G|---------------------------------------------------------------------------6-------------------------
D|----0-------------------0-----------------------------0----------------------------------------------


D|--------------------------0---3----------2----0---------------------------
A|---------------------3------------3------3-------3------------------------
F| chord diagramF|F|----------------0------------------------0-----------0---------0----------
C| chord diagramC|C|---------2/4---------------------------------------------2/4-------4----2-
G|----3------------------------------------3--------------------------------
D|--------------------------------------------------------------------------


D|-----------------------0------------------------
A|-----------------4----------4-------------------
F| chord diagramF|F|------------5--------------------5--------------
C| chord diagramC|C|--------7-----------------------------7---------
G|----0--------------------------------------0----
D|------------------------------------------------


D|--------------------------0----------------------------0----------
A|---------------------7----------------------------10--------------
F| chord diagramF|F|---------------8-----------------------------11-------------------
C| chord diagramC|C|---------10-----------------------------13------------------------
G|----0------------------------------0------------------------------
D|------------------------------------------------------------------




D|-------------------------------------------------------------0---------------
A|------------------------0-------------------------------0---------0----------
F| chord diagramF|F|-------------------0--------------0----------------3-------------------2-----
C| chord diagramC|C|------------2/4---------------7----------------4---------------------------3-
G|--------2--------------------------------------------------------------------
D|----0------------------------------------2-------------------1---------------


D|----------------------------------------------------------------------------0----
A|---------------------------0------------------------0------------------4---------
F| chord diagramF|F|----------------0--------------0---------------2-----------------0---------------
C| chord diagramC|C|----------2/4------10---------------------4--------------------------------------
G|-------2-----------------------------3----------------------2--------------------
D|----0----------------------------------------------------------------------------


D|-------------------------------------------------------------0---------------
A|------------------------0-------------------------------0---------0----------
F| chord diagramF|F|-------------------0--------------0----------------3-------------------2-----
C| chord diagramC|C|------------2/4---------------7----------------4---------------------------3-
G|--------2--------------------------------------------------------------------
D|----0------------------------------------2-------------------1---------------


D|-------------------0---------------------0------------------0---------------0----
A|---------------4---------------------4----------------4------------------4-------
F| chord diagramF|F|-----------4--------------------2-----------------2------------------------------
C| chord diagramC|C|---------------------------------------------------------------------4-----------
G|----2-------------------0--------------------------------------------------------
D|----------------------------------------------3------------------2---------------


D|-------------------------0-------------0----------------------------
A|----------------------------4----------4----------------------------
F| chord diagramF|F|-----------------0-------------0-------0----------------------------
C| chord diagramC|C|-----------2/4-------------------------4----------------------------
G|-------2-------------------------------2----------------------------
D|----0----------------------------------0----------------------------



     H chord diagramHH.N        H chord diagramHH.N

D|---------------12-------------------------------------------------
A|----16------------------------------------------------------------
F| chord diagramF|F|------------------------------------------------------------------
C| chord diagramC|C|------------------------------------------------------------------
G|------------------------------------------------------------------
D|------------------------------------------------------------------


Pre Solo ;

Guitar Solo :

     P.M    .     .     .     .        .      .     .

D|-------------------------------------------------------------
A|-------------------------------------------------------------
F| chord diagramF|F|-------------------------------------4------2----------------
C| chord diagramC|C|----------------2-----4-----5---------------------5----------
G|----------2--------------------------------------------------
D|----0--------------------------------------------------------


     P.M     .      .           P.M     .       .

D|-------------------------0---------------------------0-----------
A|------------------2---------------------------1------------------
F| chord diagramF|F|-----------3--------------------------2--------------------------
C| chord diagramC|C|----4--------------------------3---------------------------------
G|-----------------------------------------------------------------
D|-----------------------------------------------------------------


     P.M    .      .     .     .       .      .      .

D|--------------------------------------------------------------
A|--------------------------------------------------------------
F| chord diagramF|F|-------------------------------------4------2-----------------
C| chord diagramC|C|-----------------2-----4-----5---------------------5----------
G|-----------2--------------------------------------------------
D|----0---------------------------------------------------------


     P.M     .     .      .     .      .     .      .

D|----------------------------------------------------------
A|----------------------------------------------------------
F| chord diagramF|F|------------------------2------------------2--------------
C| chord diagramC|C|----4------------4------------------1-------------1-------
G|-----------3------------------2---------------------------
D|----------------------------------------------------------


     P.M    .      .     .     .     .     .     .

D|----------------------------------------------------------
A|----------------------------------------------------------
F| chord diagramF|F|-----------------------------------4-----2----------------
C| chord diagramC|C|-----------------2-----4-----5-----------------5----------
G|-----------2----------------------------------------------
D|----0-----------------------------------------------------


     P.M     .      .             P.M     .     .

D|-------------------------0--------------------------0-------------
A|------------------2---------------------------1-------------------
F| chord diagramF|F|-----------3----------------------------2-------------------------
C| chord diagramC|C|----4----------------------------3--------------------------------
G|------------------------------------------------------------------
D|------------------------------------------------------------------




D|---------------------------------------------------------------
A|-------------------4-----------------------------0-------------
F| chord diagramF|F|---------------------------------------------------------------
C| chord diagramC|C|------------4------------4---------------4---------------4-----
G|-----2---------------------------0-----------------------------
D|---------------------------------------------------------------




D|-----------------------------------------------------------------
A|-------------------0-----------------------------2---------------
F| chord diagramF|F|-----------------------------------------------------------------
C| chord diagramC|C|-----------2--------------2-------------1----------------1-------
G|-----------------------------------------------------------------
D|----3----------------------------2-------------------------------


     P.M  .   .   .

D|----------------------------------------------------------------
A|----------------------------------------------------------------
F| chord diagramF|F|----------------------------------------------------------------     (3x)
C| chord diagramC|C|----2---2---2---2-----------------------------------------------
G|----2---2---2---2-----------------------------------------------
D|----0---0---0---0-----------------------------------------------




D|------------------------------------------------------------------
A|------------------------------------------------------------------
F| chord diagramF|F|------------------------------------------------------------------
C| chord diagramC|C|----4----------------------------4--------------------------------
G|----2----------------------------0--------------------------------
D|------------------------------------------------------------------




D|------------------------------------------------------------------
A|------------------------------------------------------------------
F| chord diagramF|F|----4-------------------------------------------------------------
C| chord diagramC|C|----2-------------------------------------------------------------
G|---------------------------------4--------------------------------
D|----3----------------------------2--------------------------------


     P.M  .   .   .

D|----------------------------------------------------------------
A|----------------------------------------------------------------
F| chord diagramF|F|----------------------------------------------------------------
C| chord diagramC|C|----2---2---2---2-----------------------------------------------
G|----2---2---2---2-----------------------------------------------
D|----0---0---0---0-----------------------------------------------


     P.M    .     .     .

D|----------------------0-------------------------0-----------------
A|----------------7-------------------------6-----------------------
F| chord diagramF|F|----------6-------------------------5-----------------------------
C| chord diagramC|C|----8-------------------------7-----------------------------------
G|------------------------------------------------------------------
D|------------------------------------------------------------------


     P.M  .   .   .

D|-----------------------------------------------------------------
A|-----------------------------------------------------------------
F| chord diagramF|F|-----------------------------------------------------------------
C| chord diagramC|C|----2---2---2---2------------------------------------------------
G|----2---2---2---2------------------------------------------------
D|----0---0---0---0------------------------------------------------




D|-----------------------------------------------------------------
A|-----------------------------------------------------------------
F| chord diagramF|F|------------------------5----------------------5-----------------
C| chord diagramC|C|----7------------7----------------------7-------------7----------
G|----------7----------------------6-------------------------------
D|-----------------------------------------------------------------


     P.M  .   .   .

D|----------------------------------------------------------------
A|----------------------------------------------------------------
F| chord diagramF|F|----------------------------------------------------------------
C| chord diagramC|C|----2---2---2---2-----------------------------------------------
G|----2---2---2---2-----------------------------------------------
D|----0---0---0---0-----------------------------------------------


     P.M    .     .     .     .     .    .    .

D|----------------------0---------------------0----------
A|----------------7----------------------6---------------
F| chord diagramF|F|----------6-----------------------5--------------------
C| chord diagramC|C|----8-----------------------7--------------------------
G|-------------------------------------------------------
D|-------------------------------------------------------




D|-------------------------------------------------------------------
A|-------------------------------------------------------------------
F| chord diagramF|F|-------------------------------------------------------------------
C| chord diagramC|C|----4----------------------------4---------------------------------
G|----2----------------------------0---------------------------------
D|-------------------------------------------------------------------




D|-----------------------------------------------------------------
A|-----------------------------------------------------------------
F| chord diagramF|F|----4------------------------------------------------------------
C| chord diagramC|C|----2------------------------------------------------------------
G|---------------------------------4-------------------------------
D|----3----------------------------2-------------------------------


Guitar Base :

     P.M  .   .   .

D|----------------------------------------------------------------
A|----------------------------------------------------------------
F| chord diagramF|F|----------------------------------------------------------------    (3x)
C| chord diagramC|C|----2---2---2---2-----------------------------------------------
G|----2---2---2---2-----------------------------------------------
D|----0---0---0---0-----------------------------------------------




D|-----------------------------------------------------------------
A|-----------------------------------------------------------------
F| chord diagramF|F|-----------------------------------------------------------------
C| chord diagramC|C|----4----------------------------4-------------------------------
G|----2----------------------------0-------------------------------
D|-----------------------------------------------------------------




D|-----------------------------------------------------------------
A|-----------------------------------------------------------------
F| chord diagramF|F|----4------------------------------------------------------------
C| chord diagramC|C|----2------------------------------------------------------------
G|---------------------------------4-------------------------------
D|----3----------------------------2-------------------------------


     P.M    .     .     .     .     .      .     .

D|----------------------------------------------------------
A|----------------------------------------------------------
F| chord diagramF|F|----------------------------------4------2----------------
C| chord diagramC|C|----------------2-----4-----5------------------5----------
G|----------2-----------------------------------------------
D|----0-----------------------------------------------------


     P.M    .     .          P.M    .      .

D|----------------------0-----------------------0-------------
A|----------------2-----------------------1-------------------
F| chord diagramF|F|----------3-----------------------2-------------------------
C| chord diagramC|C|----4-----------------------3-------------------------------
G|------------------------------------------------------------
D|------------------------------------------------------------


     P.M    .     .     .     .      .      .      .

D|-----------------------------------------------------------
A|-----------------------------------------------------------
F| chord diagramF|F|-----------------------------------4------2----------------
C| chord diagramC|C|----------------2-----4-----5--------------------5---------
G|----------2------------------------------------------------
D|----0------------------------------------------------------


     P.M    .     .      .        .     .     .     .

D|------------------------------------------------------------
A|------------------------------------------------------------
F| chord diagramF|F|-----------------------2--------------------2---------------
C| chord diagramC|C|----4-----------4---------------------1-----------1---------
G|----------3---------------------2---------------------------
D|------------------------------------------------------------


     P.M     .     .     .     .     .      .      .

D|----------------------------------------------------------------
A|----------------------------------------------------------------
F| chord diagramF|F|-----------------------------------4------2---------------------
C| chord diagramC|C|-----------------2-----4-----5-------------------5--------------
G|-----------2----------------------------------------------------
D|----0-----------------------------------------------------------


     P.M     .      .             P.M     .     .

D|-------------------------0--------------------------0--------------
A|------------------2---------------------------1--------------------
F| chord diagramF|F|-----------3----------------------------2--------------------------
C| chord diagramC|C|----4----------------------------3---------------------------------
G|-------------------------------------------------------------------
D|-------------------------------------------------------------------




D|--------------------------------------------------------------------
A|--------------------4------------------------------0----------------
F| chord diagramF|F|--------------------------------------------------------------------
C| chord diagramC|C|-------------4------------4---------------4----------------4--------
G|-----2-----------------------------0--------------------------------
D|--------------------------------------------------------------------




D|----------------------------------------------------------------
A|-------------------0------------------------------2-------------
F| chord diagramF|F|----------------------------------------------------------------
C| chord diagramC|C|-----------2---------------2------------1---------------1-------
G|----------------------------------------------------------------
D|----3----------------------------2------------------------------

Almost there ...

Sign in to get your own page with links to favourite songs and more. You are just one click away...

Login with Facebook Login with Google