Log in

One click and you are in

Login with Facebook Login with Google

Why sign up and log in

Guitar Tabs Explorer
Megadeth guitar tabs for Chosen ones

Guitar tabs

Legend
------

 h  = hammer-on
 p  = pull-off
 b  = bend
 r  = bend release
 /  = slide up/down
<5> = natural harmonic
5: = artifical harmonic
 ~  = vibrato
 tr = trill

   SECTION A: BOTH GUITARS (detune 1/4 step from normal)

Eb-||----------------------------------------------------|-------------|
Bb-||*---------------------------------------------------|-------------|
Gb-||---5b-----------------------5-----------------------|-5-----------|
Db-||-------------7-----5-----------------7-----5--------|----------7--|
Ab-||*------0--0-----0-----6--7-----0--0-----0-----6--7--|----0--0-----|
Eb-||----------------------------------------------------|-------------|
               "You doubt your strength or courage..."           "Don't come to join with me..."


                                              SECTION B: BOTH GUITARS

Eb-----------------------------------------||---------------------------|
Bb----------------------------------------*||---9---------7-------------|
Gb------------7--6--5----------------------||---9---------7---------5---|
Db----5----------------7--6--5-------------||---9------x--7----8--------|
Ab-0-----6--7-------------------7--6p5-0--*||---7------x--5----8------0-|
Eb-----------------------------------------||------------------6--------|
                                       4x          "An animal so vicious..."

Eb-----------------------------|----------------------------------------|
Bb-----------------------------|-9-------7----10------------------------|
Gb-------------5---------------|-9-------7----10----5---------------7-6-|
Db---7---5-----------7---5-----|-9-------7----10----------7---5---------|
Ab-0---0---6-7---0-0---0---6-7-|-7-------5-----8------0-0---0---6-7-----|
Eb-----------------------------|---------------8------------------------|
   "No others fought and won..."    "So on the fields of battle..." "We are the chosen ones..."

                     SECTION C: GUITAR 1 Interlude Lick:

Eb-----------------|-----------||--------------------------------------|
Bb-----------------|-----------||*-------------------------------------|
Gb-5---------------|---2-------||---0h2-4-5-4-2-0----------------5p4-2-|
Db---7-6-5---------|---2-------||-----------------5p4-2-0--------------|
Ab---------7-6p5-0-|---0-------||*-------------------------0h2-3-------|
Eb-----------------|-----------||--------------------------------------|
                                   "Black shadows fill the sky..."

A chord diagramEb MajorEb|-----------|--------------------------------------------------------|
A chord diagramBb majorBb|-----------|--------------------------------------------------------|
A chord diagramGbGb|-0---------|---------5p4-2-0------------------5p4-2-0-2---0---------|
A chord diagramDbDb|---5p4-2-0-|-----------------5p4-2-0--------------------------2---0-|
A chord diagramAbAb|-----------|---0h2-3--------------------0h2-3-----------------------|
A chord diagramEb MajorEb|-----------|--------------------------------------------------------|
                "As the creature's eyes grow near..."               4x


       SECTION C: GUITAR 2

Eb--||-----------||----------------------------|-----------------------|
Bb-*||-----------||*---------------------------|-----------------------|
Gb--||---2-------||--2-----------5-------------|-4--------------3------|
Db--||---2-------||--2-----------5-------------|-4--------------3------|
Ab-*||---0-------||*-0-----------3-------------|-2--------------1------|
Eb--||-----------||----------------------------|-----------------------|

                         SECTION A chord diagramC majorC EXTENSION: GUITAR 1

A chord diagramEb MajorEb|-------------------||-||---------------------------------------------|
A chord diagramBb majorBb|------------------*||-||*--------------------------------------------|
A chord diagramGbGb|----2---0----------||-||---------0h5-4-2-0-------------------0h5-4-2-|
A chord diagramDbDb|------------2---0--||-||-------------------5p4-2-0-------------------|
A chord diagramAbAb|------------------*||-||*--0h2-3-----------------------0h2-3---------|
A chord diagramEb MajorEb|-------------------||-||---------------------------------------------|
                  4x          "Heaven's powers fill my arms..."

A chord diagramEb MajorEb|---------------|----------------------------------------------------|
A chord diagramBb majorBb|---------------|----------------------------------------------------|
A chord diagramGbGb|-0-------------|-------0h5-4-2-0-------------------0h5-4-2-0-2---0--|
A chord diagramDbDb|---5p4-2-0-----|-----------------5p4-2-0----------------------------|
A chord diagramAbAb|---------------|-0h2-3-----------------------0h2-3------------------|
A chord diagramEb MajorEb|---------------|----------------------------------------------------|
                    "Onward now to fight I'm sent..."


             SECTION A chord diagramC majorC EXTENSION: GUITAR 2

Eb--------||-||-----------------------------------------------------|---|
Bb-------*||-||*----------------------------------------------------|---|
Gb--------||-||-----------------------5------------------------4----|---|
Db-2---0--||-||---2---------2---------5----2---------2---------4----|-2-|
Ab-------*||-||*--0--0-0-0--0--0-0-0--3----0--0-0-0--0--0-0-0--2----|-0-|
Eb--------||-||-----------------------------------------------------|---|

                                                         LEAD: GUITAR 1

A chord diagramEb MajorEb|---------------------------------------------------||---------------|
A chord diagramBb majorBb|--------------------------------------------------*||---9b10--------|
A chord diagramGbGb|-------------------3-------------------------------||---9b10--------|
A chord diagramDbDb|---------2---------3----2-----------7---5----------||---------------|
A chord diagramAbAb|--0-0-0--0--0-0-0--1----0--0-0-0--0---------7---5-*||---------------|
A chord diagramEb MajorEb|---------------------------------------------------||---------------|


Eb---------------------------------------------|-------------------------|
Bb---------------9--7--------------------------|---------------7h8-10-10-|
Gb--9p8-9p7-9----9--7-7h9-7-9-7-9-7-9-7-9-7-9--|---------7--10-----------|
Db------------9--------------------------------|-7h8-9-9-----------------|
Ab---------------------------------------------|-------------------------|
Eb---------------------------------------------|-------------------------|


Eb-----7-----------------------------------------|-----------------------|
Bb--10---10-7-10-7-10-7--------------------------|-----------------------|
Gb----------------------9b--7-9-7---7------------|--------9-8------------|
Db--------------------------------9---9-7---7-9--|---7h10-----7------10--|h
Ab----------------------------------------9------|--------------10-------|
Eb-----------------------------------------------|-----------------------|


Eb--------------------------------------------15-14--15--17-|-20p19-17--|p
Bb------------------------14-13---------13h17---------------|-----------|
Gb----12-11---------11h14----------11-----------------------|-----------|
Db-13----------12---------------14--------------------------|-----------|
Ab----------13----------------------------------------------|-----------|
Eb----------------------------------------------------------|-----------|


Eb-15--------14h15-17-20p19-17--------------------14h15-17-15-14-15-17--|p
Bb----15b16--------------------20p19-17--------16-----------------------|
Gb--------------------------------------19b20---------------------------|
Db----------------------------------------------------------------------|
Ab----------------------------------------------------------------------|
Eb----------------------------------------------------------------------|


Eb-15-14-15-14-------------|---------------------------------r------22-|
Bb-------------17-15-14----|--22b24------22b24--------22b24---p19------|
Gb----------------------16-|-------------------------------------------|
Db-------------------------|-------------------------------------------|
Ab-------------------------|-------------------------------------------|
Eb-------------------------|-------------------------------------------|


Eb-----22---r---22--19--|-22-20-19--------------------------12--15p12-----|
Bb----------------------|----------22-20-19---------------------------15--|p
Gb----------------------|-------------------20b22-------------------------|
Db----------------------|-------------------------------------------------|
Ab----------------------|-------------------------------------------------|
Eb----------------------|-------------------------------------------------|


Eb-------------------------|--------------------------------------------|
Bb-12----------------------|--------------------------------------------|
Gb----14p12----------------|--------------------------------------------|
Db----------14b15----------|-----------------------------14-15-14-------|
Ab-------------------------|--------------14-15-14-15-17----------17-15-|
Eb-------------------------|-15--17-15-17-------------------------------|


Eb----------------------------------------------------------|----------|
Bb----------------------------------------------------------|----------|
Gb-------------------------14----14-16-17-16-14-16-14----14-|-14-16-17-|
Db----------------14-16-17----17----------------------17----|----------|
Ab-14-------16-17-------------------------------------------|----------|
Eb----17-15-------------------------------------------------|----------|


Eb-------------------------------------------------15-17-19-19-20-22-22-|
Bb-14-15-16-17-18-19-19-18-17-------------15-17-19----------------------|
Gb----------------------------19-18-17----------------------------------|
Db-------------------------------------19-------------------------------|
Ab----------------------------------------------------------------------|
Eb----------------------------------------------------------------------|


Eb-20-19--------------|--------------------------------------------------|
Bb-------20-22-20-19--|--------------------------------------------------|
Gb--------------------|--------------------------------------------------|
Db--------------------|--------------------------------------------------|
Ab--------------------|--------------------------------------10-11-12-13-|
Eb--------------------|--10-11-12-13-12-13-14-15-13-14-15-16-------------|


Eb--------------------------------------------------|-------------------|
Bb--------------------------------------------------|-------------------|
Gb--------------------------------------------------|-------------10h12-|
Db-------------------------10-11-12-13-12-13-14-15--|-14-15-16-17-------|
Ab-12-13-14-15-13-14-15-16--------------------------|-------------------|
Eb--------------------------------------------------|-------------------|


Eb----------------------------------------13----------------------13-15-|
Bb-------------------13h15-13----13-15-16----16-15-13----13-15-16-------|
Gb-10----10-12-14-15----------15----------------------15----------------|
Db----14----------------------------------------------------------------|
Ab----------------------------------------------------------------------|
Eb----------------------------------------------------------------------|


Eb-13-15-13--|-17-18-17-15-17-15--14-15-14----14-----------------------|
Bb-----------|-----------------------------17----15--14-15-14----14----|
Gb-----------|------------------------------------------------16----15-|
Db-----------|---------------------------------------------------------|
Ab-----------|---------------------------------------------------------|
Eb-----------|---------------------------------------------------------|


Eb---------------------------------------|-----------------------------|
Bb---------------------------------------|-----------------------------|
Gb--14-15-14----14-----------------------|-----------------------------|
Db-----------17----17--14-15-14----14----|-----------------------------|
Ab------------------------------17----15-|-----------------------------|
Eb---------------------------------------|--17-17-16-16-15-15-14-14-13-|


Eb------------------------------------------------------|-||---------17-|
Bb------------------------------------------------------|-||*--17h20----|
Gb------------------------------------------------------|-||------------|
Db------------------------------------------------------|-||------------|
Ab------------------------------------------------------|-||*-----------|
Eb-13-12-12-11-11-10-10-9-9-8-8-7-7-6-6-5-5-4-4-3-3-2-2-|-||------------|


Eb--22p20-17--20p19-17--20p19-17--------17--22p20-17--20p19-17--20p19-17-|
Bb--------------------------------17h20----------------------------------|
Gb-----------------------------------------------------------------------|
Db-----------------------------------------------------------------------|
Ab-----------------------------------------------------------------------|
Eb-----------------------------------------------------------------------|


Eb--|-------17--22p20-17--20p19-17--20p19-17-----17--------------------|
Bb--|-17h20-----------------------------------16----16h19--17h20/-21---|
Gb--|------------------------------------------------------------------|
Db--|------------------------------------------------------------------|
Ab--|------------------------------------------------------------------|
Eb--|------------------------------------------------------------------|

              LEAD RHYTHM: GUITAR 2

Eb---------||-||-------------------------------------------------------|
Bb--------*||-||*------------------------------------------------------|
Gb---------||-||-------------------------------------------------------|
Db---------||-||-------------------------------------------------------|
Ab--------*||-||*--2-2-2-2-0-0-2-2-3-3-3-3-5-5-3-3-2-2-2-2-0-0-2-2-3-3-|
Eb---------||-||-------------------------------------------------------|


A chord diagramEb MajorEb|-------------|------------------------------------------------------|
A chord diagramBb majorBb|-------------|------------------------------------------------------|
A chord diagramGbGb|-------------|------------------------------------------------------|
A chord diagramDbDb|-------------|-------------------------------------------------4----|
A chord diagramAbAb|-3-3-5-5-3-3-|-2-2-2-2-0-0-2-2-3-3-3-3-5-5-3-3-2-2-2-2-0-0-3-3-2----|
A chord diagramEb MajorEb|-------------|------------------------------------------------------|


A chord diagramEb MajorEb|-------||-----------------------------------------------------------|
A chord diagramBb majorBb|------*||-----------------------------------------------------------|
A chord diagramGbGb|-------||-----------------------------------------------------------|
A chord diagramDbDb|-------||---------------------------3-3-----------------------------|
A chord diagramAbAb|------*||---5-5-5-5-3-3-5-5-6-6-6-6-----6-6-5-5-5-5-3-3-5-5-6-6-6-6-|
A chord diagramEb MajorEb|-------||-----------------------------------------------------------|
       4x

A chord diagramEb MajorEb|---------|-----------------------------------------------------------|
A chord diagramBb majorBb|---------|-----------------------------------------------------------|
A chord diagramGbGb|---------|-----------------------------------------------------------|
A chord diagramDbDb|-3-3-----|-------------------------3-3-----------------------------3-|
A chord diagramAbAb|-----6-6-|-5-5-5-5-3-3-5-5-6-6-6-6-----6-6-5-5-5-5-3-3-5-5-6-6-6-6---|
A chord diagramEb MajorEb|---------|-----------------------------------------------------------|


A chord diagramEb MajorEb|--------|-----------------------------------------------------------|
A chord diagramBb majorBb|--------|-----------------------------------------------------------|
A chord diagramGbGb|--------|-----------------------------------------------------------|
A chord diagramDbDb|-3------|---------------------------3-3-----------------------------|
A chord diagramAbAb|---6-6--|---5-5-5-5-3-3-5-5-6-6-6-6-----6-6-5-5-5-5-3-3-5-5-6-6-6-6-|
A chord diagramEb MajorEb|--------|-----------------------------------------------------------|


A chord diagramEb MajorEb|---------|----------------------------------------------------------|
A chord diagramBb majorBb|---------|----------------------------------------------------------|
A chord diagramGbGb|---------|----------------------------------------------------------|
A chord diagramDbDb|-3-3-----|-------------------------3-3-------------------7------7---|
A chord diagramAbAb|-----6-6-|-5-5-5-5-3-3-5-5-6-6-6-6-----6-6-5-5-5-5-3-3-x-5--x-x-5---|
A chord diagramEb MajorEb|---------|----------------------------------------------------------|

         SECTION D: BOTH GUITARS

A chord diagramEb MajorEb|----|---------0----0--------------0----0---------|-------0----0------|
A chord diagramBb majorBb|----|-------------------0-------------------0----|-----------------0-|
A chord diagramGbGb|----|---10-------------------9-------------------|--8----------------|
A chord diagramDbDb|----|---10-------------------9-------------------|--8----------------|
A chord diagramAbAb|----|----8-------------------7-------------------|--6----------------|
A chord diagramEb MajorEb|----|--------------------------------------------|-------------------|
                           "I reign..."        "for now..."           "I stay..."


                             SECTION E: GUITAR 1

A chord diagramEb MajorEb|---------0----0---------|--------------------------------------------|
A chord diagramBb majorBb|-------------------0----|--------------------------------------------|
A chord diagramGbGb|----5-------------------|--------4-3-2----------5-4-3----------6-5-4-|
A chord diagramDbDb|----5-------------------|--------------4-3------------5-4------------|
A chord diagramAbAb|----3-------------------|---2--2-----------3--3-----------4--4-------|
A chord diagramEb MajorEb|------------------------|--------------------------------------------|


A chord diagramEb MajorEb|--------------------|-----------------------------------------------|
A chord diagramBb majorBb|--------------------|--------------------------------8-----8-----8--|
A chord diagramGbGb|----------7-6-5-----|------8-7-6----------9-8-7------7-----7-----7--|
A chord diagramDbDb|-6-5------------7-6-|------------8-7------------9-8--6-----6-----6--|
A chord diagramAbAb|-----5--5-----------|-6--6-----------7--7------------7-----7-----7--|
A chord diagramEb MajorEb|--------------------|-----------------------------------------------|
                                                   "I stay to kill..."


            SECTION E: GUITAR 2

A chord diagramEb MajorEb|------||-------------------------------------------------------------|
A chord diagramBb majorBb|--\---||-------------------------------------------------------------|
A chord diagramGbGb|--\---||-------------------------------------------------------------|
A chord diagramDbDb|--\---||-------------------------------------------------------------|
A chord diagramAbAb|--\---||---2--2-2-1-0-----3--3-3-2-1-----4--4-4-3-2-----5--5-5-4-3---|
A chord diagramEb MajorEb|------||--------------2-1------------3-2------------4-3------------5-|

                                                             SECTION F: BASS LICK

A chord diagramEb MajorEb|---|---------------------------------------------------||-----------|
A chord diagramBb majorBb|---|---------------------------------------------------||-----------|
A chord diagramGbGb|---|--------------------------------9------------------||-3/--9--8--|
A chord diagramDbDb|---|--------------------------------9-----9-----2------||-----------|
A chord diagramAbAb|---|-6--6-6-5-4-----7--7-7-6-5------7-----9-----2------||-----------|
A chord diagramEb MajorEb|-4-|------------6-5------------7-6--------7-----0------||-----------|


A chord diagramEb MajorEb|--------------------------------------------|------------------------|
A chord diagramBb majorBb|--------------------------------------------|------------------------|
A chord diagramGbGb|-7------------------7--6--5-----------------|--5--4--3---------------|
A chord diagramDbDb|----9--8--7--8-7-6-----------7--6--5--6-5-4-|-----------5--4--3--4-3-|
A chord diagramAbAb|--------------------------------------------|------------------------|
A chord diagramEb MajorEb|--------------------------------------------|------------------------|

                                  END: BOTH GUITARS

A chord diagramEb MajorEb|-----------------------------|---------------------------------------|
A chord diagramBb majorBb|-----------------------------|---9---------7-------------------------|
A chord diagramGbGb|----3--2--1------------------|---9---------7---------5---------------|
A chord diagramDbDb|-2-----------3--2--1--2-1-0--|---9------x--7----8----------7---5-----|
A chord diagramAbAb|-----------------------------|---7------x--5----8------0-0---0---6-7-|
A chord diagramEb MajorEb|-----------------------------|------------------6--------------------|
                                       "You doubt your strength or courage..." "Don't
to join with me..."

Eb-----------------|-----------------------------------------------------|
Bb-----------------|-9-------7----10-------------------------------------|
Gb-5---------------|-9-------7----10----5---------------7-6-5------------|
Db-------7---5-----|-9-------7----10----------7---5-----------7-6-5------|
Ab---0-0---0---6-7-|-7-------5-----8------0-0---0---6-7-------------7-6--|p
Eb-----------------|---------------8-------------------------------------|
                         "For Deth surely waits you..." "With sharp and pointy teeth..."

Eb-----|-------------------------------------------------------|-------|
Bb-----|---9---------7-----------------------------------------|-9-----|
Gb-----|---9---------7---------5---------------5---------------|-9-----|
Db-----|---9------x--7----8----------7---5-----------7---5-----|-9-----|
Ab-5-0-|---7------x--5----8------0-0---0---6-7---0-0---0---6-7-|-7-----|
Eb-----|------------------6------------------------------------|-------|
              "An animal so vicious..." "No others fought and won..." "So on the
 fields of battle..."

Eb--------------------------------------------------|------------------|
Bb---7----10----------------------------------------|------------------|
Gb---7----10----5---------------7-6-5---------------|--2--------2------|
Db---7----10----------7---5-----------7-6-5---------|--2--------2------|
Ab---5-----8------0-0---0---6-7-------------7-6p5-0-|--0--------0------|
Eb---------8----------------------------------------|------------------|
                    "We are the chosen ones..."

A chord diagramEb MajorEb|-----------------------|------------------------------------*-|
A chord diagramBb majorBb|-----------------------|------------------------------------*-|
A chord diagramGbGb|--------------(2)------|--2---------------------------------*-|
A chord diagramDbDb|--------------(2)------|--2---------------------7\----------*-|
A chord diagramAbAb|--------------(0)------|--0---------------------7\----------*-|
A chord diagramEb MajorEb|-----------------------|------------------------5\----------*-|


Full Lyrics :

You doubt your strength or courage
Don't come to join with me
For deth surely wants you
With sharp and pointy teeth
An animal so vicious
No others fought and won
So on the fields of battle
We are the chosen ones
Human bones blank the dirt
OF the heathens lair
That we must pass this den of deth
The only path from here
But I walk in the light
The time to die has come
No-one shall take my life
I'm of the chosen ones
Black shadows fill the sky
As the creatures eyes grow near
Raise the shield of the holy pilgrims
High into the air
Heavens powers fill my arms
Onward now to fight I'm sent
Oh the beast is coming
To put you to the test

(Solo: Mustaine)

Lookout!
Now this land is mine to pilage
Rape, and steal, and take at will
Never let you cross this path
I reign for now I stay to kill

Almost there ...

Sign in to get your own page with links to favourite songs and more. You are just one click away...

Login with Facebook Login with Google