Search tabs and chords

Search for song, artist or band

Log in

One click and you are in

Login with Facebook Login with Google

Why sign up and log in

Guitar Tabs Explorer
Megadeth bass tabs for Chosen one (Ver. 2)

Bass tabs

intro     verse
G||-----||----------------------------------7-6-5------------||
D||-----||o---------------------------------------7-6-5-----o||
A||--0--||o-0-0-0-0-0-0-0-0-0-0-0-0-0-0-0-0-------------7-0-o||
E||-----||---------------------------------------------------||

chorus
G||-----------------------------------------------------------------7-6-5-----------||
D||-----------------------------------------------------------------------7-6-5-----||
A||-7-7-7-7-7-5-5-----0-0-0-0-0-0-0-0-7-7-7-7-7-8-8-0-0-0-0-0-0-0-0-------------7-0-||
E||---------------6-6---------------------------------------------------------------||

bridge (
G||-------------------------||-------------------------------------------------------------||
D||o---------------7-5-----o||o---------------------------------------------------7-5-----o||
A||o-0--3----2--1------7-5-o||o-0--0-0-0-0-3-0--0-0-0-0-2-0--0-0-0-0-1-0--0-0-0-0-----7-5-o||
E||-------------------------||-------------------------------------------------------------||

solo
G||-----------------------------------||-----------------------------------||
D||o---------------------------------o||o---------------------------------o||
A||o-2-2-2-2-0-0-2-2-3-3-3-3-5-5-3-3-o||o-5-5-5-5-3-3-5-5-6-6-6-6-8-8-6-6-o||
E||-----------------------------------||-----------------------------------||

G||--------------------------------------||
D||--------------------------------------||
A||-0--0-0-0-0-3-0--0-0-0-0-2--7---6---3-||
E||--------------------------------------||


G||------4-2-----------5-3-----------6-4-----------7-5------------8-6-----------9-7-------------||
D||----------4-3-2---------5-4-3---------6-5-4---------7-6-5----------8-7-6---------9-8-7-------||
A||-2-2------------3-3-----------4-4-----------5-5------------6-6-----------7-7-----------0-0-0-||
E||---------------------------------------------------------------------------------------------||

bass solo thing
G||-9-7-------------8-6-------------7-5-------------6-4-------------||
D||-----9-8-7-----------8-7-6-----------7-6-5-----------6-5-4-------||
A||-----------9-8-7-----------8-7-6-----------7-6-5-----------6-5-4-||
E||-----------------------------------------------------------------||

Other versions of Chosen One

Chosen oneBass tabs
Chosen onesBass tabs

Almost there ...

Sign in to get your own page with links to favourite songs and more. You are just one click away...

Login with Facebook Login with Google