Search tabs and chords

Search for song, artist or band

Log in

One click and you are in

Login with Facebook Login with Google

Why sign up and log in

Guitar Tabs Explorer
Megadeth bass tabs for Captive honor

Bass tabs

90 bpm, rest for 16 bars

Intro - 90 bpm
G|-----------------|-----------------|-----------------|-----------------|
D|-----------------|-----------------|-----------------|-----------------|
A|-----------------|---------3-------|-----------------|---------3-------|
E|-2-------1-------|-0-----------3---|-2-------1-------|-0-----------3---|

G|-----------------|-----------------|-----------------|-----------------|
D|-----------------|-----------------|-----------------|-----------------|
A|-----------------|---------3-------|-----------------|---------320-2-02|
E|-2-------1-------|-0-----------3---|-2-------1-------|-0----------2-2--|

G|-----------------|-----------------|-----------------|-----------------|
D|-----------------|-----------------|-----------------|-----------------|
A|-----------------|---------23------|-----------------|---------23------|
E|-2-222-2-1-111-1-|-0-000-0---002300|-2-222-2-1-111-1-|-0-000-0---002300|

G|-----------------|-----------------|-----------------|-----------------|
D|-----------------|-----------------|-----------------|-----------------|
A|-----------------|---------23------|-----------------|---------23------|
E|-2-222-2-1-111-1-|-0-000-0---002300|-2-222-2-1-111-1-|-0-000-0---002300|

G|-----------------|-----------------|-----------------|-----------------||
D|-----------------|-----------------|-----------------|-----------------||
A|-----------------|-----------------|-----------------|---------320-2-02||
E|-2-2-2-2-2-2-2-2-|-2-2-2-2-2-2-2-2-|-2-2-2-2-2-2-2-2-|-2-2-2-2----2-2--||

Riff 1
G|-----------------|-----------------|-----------------|-----------------||
D|-----------------|-----------------|-----------------|-----------------||
A|---------3-3-3-3-|-2-2-2-2---------|---------3-3-3-3-|-2-2-2-2---------||
E|-2-2-2-2---------|--------45-5-7-7-|-2-2-2-2---------|--------45-5-7-7-||

Riff 2
G|-----------------|-----------------|-----------------|-----------------||2x
D|-----------------|-----------------|-----------------|-----------------||
A|-----------------|-2-222222320-2-02|-----------------|-2-222222320-2-02||
E|-2-2222221-111111|------------2-2--|-2-2222221-111111|------------2-2--||

Play Riff 1

Riff 3
G|-----------------|-----------------|-----------------|-----------------||2x
D|-----------------|-----------------|-----------------|-----------------||
A|-----------------|-----------------|-----------------|-----------------||
E|-2-225-0-00555588|-2-225-0-003-003-|-2-225-0-00555588|-2-225-0-003-003-||

Play Riff 2 - 2x
Play Riff 1
Play Riff 3 - 2x

Riff 4
G|-----------------|-----------------|-----------------|-----------------||2x
D|-----------------|-----------------|-----------------|-----------------||
A|-----------------|---------320-----|-----------------|---------320-----||
E|-2--253331--15322|-0--05200----320-|-2--253331--15322|-0--05200----320-||

Ending
G|-----------------|-----------------|-----------------|-----------------||
D|-----------------|-----------------|-----------------|-----------------||
A|---------3-------|-2-------0---2---|---------320-2-02|---R-------------||
E|-2---------------|-----------------|-2----------2-2--|-2---------------||

Almost there ...

Sign in to get your own page with links to favourite songs and more. You are just one click away...

Login with Facebook Login with Google