Search tabs and chords

Search for song, artist or band

Log in

One click and you are in

Login with Facebook Login with Google

Why sign up and log in

Guitar Tabs Explorer
Megadeth guitar tabs for Blood of heroes

Guitar tabs with lyrics

____   ____                                                         ___   ____
 |Y\   /Y| ________ ________            ______   ________ _________ |YI   |Y|
 ||\\ //|| |>----<| |>----<|     /\     |>---<\  |>----<| |\-----/| |||   |||
 ||\\Y//|| ||T___\! ||T~~~\!    //\\    ||T~~\\\ ||T___\! |/~TYT~\| ||l___|||
 |||\Y/||| ||<-<]   |||  ___   ///\\\   |||  ||| ||<-<]      |||    ||<--->||
 ||| Y ||| ||l_____ ||l__|Y|  //<==>\\  ||l__/// ||l_____    |||MAT |||~~~|||
 |||   ||| |^----<| |^--->|| ///~~~~\\\ |^---</  |^----<|   /_Y_\   |||   |||
 |^l   |^l  ~~~~~\|  ~~~~~\|~~~      ~~~ ~~~~~    ~~~~~\l   ~ ~ ~   |^l   |^|
 |/    ~~~        !        !                            !           ~~~    \|
 !                                                                          !
			       Blood of Heroes.
                                  Megadeth
				 Youthansia.

Tabbed By Mat. 20th November 1994.

Note: Why?... Why Not?

Notation:       h = Hammer;	p = Pull;	. = Palmute
		\ = Slide down;	/ = Slide up;	b = bend to note
                x = Palmute whilst muffling strings with left hand.
                tr= Trill.

Tempo approx. 130 4/4.

Intro:
------                              (w.Fill 1 4th time)
       Acoustic (Let Ring)                                      Play 4x
eb---||-----------------------------|--------------------------------||
Bb chord diagramBbBb---||------------0----------------|------------0-----------0-------||
Gb chord diagramGbGb---||--------5-------5------------|--------5-------5-----------5---||
Db chord diagramDbDb---||----7---------------7--------|----7---------------7-----------||
Ab chord diagramAbAb---||0----------------------------|0-------------------------------||
Eb chord diagramEbEb---||-----------------------------|--------------------------------||

Fill 1:
-------

(Guitar 1)-----------------------|
|--------------------------------|
|--------------------------------|
|------------------------5-------|
|------------------------3-------|
|--------------------------------|

                                                              Play 2x
||--------------------------------|--------------------------------||
||--------------------------------|--------------------------------||
||------------------------------0-|--------------------------------||
||2-------5-----7---------------0-|2-------5-----7-----------7-----||
||0-------3-x-x-5-x-x-x-3-x-x-x---|0-------3-x-x-5-x-x-x-3-x-5-x---||
||----3-0---x-x---x-x-x-1-x-x-x---|----3-0---x-x---x-x-x-1-x---x-3-||
      . .                              . .                       .


Verse1:
-------
                                                              Play 4x
||--------------------------------|--------------------------------||
||--------------------------------|--------------------------------||
||------------------------------0-|--------------------------------||
||2-------5-----7---------------0-|2-------5-----7-----------7-----||
||0-------3-x-x-5-x-x-x-3-x-x-x---|0-------3-x-x-5-x-x-x-3-x-5-x---||
||----3-0---x-x---x-x-x-1-x-x-x---|----3-0---x-x---x-x-x-1-x---x-3-||
      . .                              . .                       .


Chorus:
-------
                                                              Play 2x
|(Guitar 1)-----------------------|--------------------------------||
||--------------------------------|--------5-3---------------------||
||--------------------------------|2---4-5------5p2----------------||
||2-------2---------------2-------|0-----------------------2-------||
||0---2-3---3-2-0-3---2-3---3-2-0-|----------------2-----2---5-3-2-||
||----------------1---------------|----------------0---4-----------||
||                                |                                ||
|(Guitar 2)-----------------------|--------------------------------||
||--------------------------------|--------8-6---------------------||
||--------------------------------|2---7-9------9p5----------------||
||2-------2---------------2-------|0-----------------------2-------||
||0---2-3---3-2-0-3---2-3---3-2-0-|----------------2-----2---5-3-2-||
||----------------1---------------|----------------0---4-----------||


Interlude:
----------

|--------------------------------|
|--------------------------------|
|--------------------------------|
|--------------------------------|
|3-------5-------6-x-------------|
|1-------3-------4-x-------------|
|                                |
|--------------------------------|
|------------------h-p---------10|
|10~~~~~~12~~~~~~9-109---9-1012--|
|----------------------12--------|
|--------------------------------|
|--------------------------------|

                                                              Play 2x
||--------------------------------|--------------------------------||
||--------------------------------|--------------------------------||
||------------------------------0-|--------------------------------||
||2-------5-----7---------------0-|2-------5-----7-----------7-----||
||0-------3-x-x-5-x-x-x-3-x-x-x---|0-------3-x-x-5-x-x-x-3-x-5-x---||
||----3-0---x-x---x-x-x-1-x-x-x---|----3-0---x-x---x-x-x-1-x---x-3-||
      . .                              . .                       .


Verse 2:
-------
                                                              Play 2x
||--------------------------------|--------------------------------||
||--------------------------------|--------------------------------||
||------------------------------0-|--------------------------------||
||2-------5-----7---------------0-|2-------5-----7-----------7-----||
||0-------3-x-x-5-x-x-x-3-x-x-x---|0-------3-x-x-5-x-x-x-3-x-5-x---||
||----3-0---x-x---x-x-x-1-x-x-x---|----3-0---x-x---x-x-x-1-x---x-3-||
      . .                              . .                       .


Chorus:
-------
                                                              Play 2x
|(Guitar 1)-----------------------|--------------------------------||
||--------------------------------|--------5-3---------------------||
||--------------------------------|2---4-5------5p2----------------||
||2-------2---------------2-------|0-----------------------2-------||
||0---2-3---3-2-0-3---2-3---3-2-0-|----------------2-----2---5-3-2-||
||----------------1---------------|----------------0---4-----------||
||                                |                                ||
|(Guitar 2)-----------------------|--------------------------------||
||--------------------------------|--------8-6---------------------||
||--------------------------------|2---7-9------9p5----------------||
||2-------2---------------2-------|0-----------------------2-------||
||0---2-3---3-2-0-3---2-3---3-2-0-|----------------2-----2---5-3-2-||
||----------------1---------------|----------------0---4-----------||


Lead Solo: (Get your Wah's Out, here's the rhythm!)
----------
                             Play 8x
||--------------------------------||----------------|
||--------------------------------||----------------|
||--------------------------------||----------------|
||2-3-2---------------------------||9-109-----------|
||0-1-0---x-5---3-2-3-2---x-3---5-||7-8-7-----------|
||--------x-3---1-0-1-0---x-1---3-||----------------|
  . .             . .

             Play 3x
||----------------||----------------|
||----------------||----------------|
||----------------||----------------|
||----------------||----------------|
||2-3-2-----------||2---------------|
||0-1-0-----------||0---------------|


Interlude:
----------
                                                              Play 2x
||--------------------------------|--------------------------------||
||--------------------------------|--------------------------------||
||------------------------------0-|--------------------------------||
||2-------5-----7---------------0-|2-------5-----7-----------7-----||
||0-------3-x-x-5-x-x-x-3-x-x-x---|0-------3-x-x-5-x-x-x-3-x-5-x---||
||----3-0---x-x---x-x-x-1-x-x-x---|----3-0---x-x---x-x-x-1-x---x-3-||
      . .                              . .                       .

                             Play 4x
||--------------------------------||
||--------3-----------------------||
||--------2-----4-----------------||
||4-------0-----2---------------5-||
||2---------------4-5-4-x-x-4-x-3-||
||----5-2---5-2---2-3-2-x-x-2-x---||
      . .   . .

                                                              Play 2x
||--------------------------------|--------------------------------||
||--------------------------------|--------------------------------||
||------------------------------0-|--------------------------------||
||2-------5-----7---------------0-|2-------5-----7-----------7-----||
||0-------3-x-x-5-x-x-x-3-x-x-x---|0-------3-x-x-5-x-x-x-3-x-5-x---||
||----3-0---x-x---x-x-x-1-x-x-x---|----3-0---x-x---x-x-x-1-x---x-3-||
      . .                              . .                       .

|--------------------------------|
|--------------------------------|
|--------------------------------|
|--------------------------------|
|3--------5--------6-x-xx-x-7\---|
|1--------3--------4-x-xx-x-5\---|

End.

--
+---------------------------------------------+----------------------------+
| Lee Metcalfe                                | E chord diagramEE-Mail: scm2lm@cm.cf.ac.uk |
| University of Wales, College of Cardiff     |    Irc: Bud3              /
| Tied to machines that make me be -Metallica | XPilot: Bud3             /
+---------------------------------------------+-------------------------':)

Almost there ...

Sign in to get your own page with links to favourite songs and more. You are just one click away...

Login with Facebook Login with Google