Search tabs and chords

Search for song, artist or band

Log in

One click and you are in

Login with Facebook Login with Google

Why sign up and log in

Guitar Tabs Explorer
Megadeth bass tabs for Blood of heroes

Bass tabs

Title: Blood Of Heroes
Album: Youthanasia
Tuning: 5 String Standard - 1/2 step down (A# D# G# C# F#)

   Intro:
F#|--------|--------|--------|--------|--------|--------|--------|
C#|--------|--------|--------|--------|--------|--------|--------|
G#|--------|--------|--------|--------|--------|--------|--------|
D#|--------|--------|--------|--------|--------|--------|--------|
A#|--------|--------|--------|--------|--------|--------|--------|
F#|---------------------------------|---------------------------------|---------------------------------|
C#|---------------------------------|---------------------------------|---------------------------------|
G#|---------------------3-----------|-----------------3-----------5---|---------------------------------|
D#|---------------------------------|-5-------3---1-------1---0-------|-0---0---0---1---0---0---0---3---|
A#|---------------------------------|---------------------------------|---------------------------------|


F#|---------------------------------|---------------------------------|---------------------------------|
C#|---------------------------------|---------------------------------|---------------------------------|
G#|-----------------3-----------5---|---------------------5-----------|-----------------3-----------5---|
D#|-5-------3---1-------1---0-------|-0---0---0---1---0-------0---3---|-5-------3---1-------1---0-------|
A#|---------------------------------|---------------------------------|---------------------------------|


F#|---------------------------------|---------------------------------|---------------------------------|
C#|---------------------------------|---------------------------------|---------------------------------|
G#|---------------------------------|-----------------3-----------5---|---------------------5-----------|
D#|-0---0---0---1---0---0---0---3---|-5-------3---1-------1---0-------|-0---0---0---1---0-------0---3---|
A#|---------------------------------|---------------------------------|---------------------------------|

   Verse 1:
F#|---------------------------------|---------------------------------|---------------------------------|
C#|---------------------------------|---------------------------------|---------------------------------|
G#|-----------------3-----------5---|---------------------------------|-----------------3-----------5---|
D#|-5-------3---1-------1---0-------|-0---0---0---1---0---0---0---3---|-5-------3---1-------1---0-------|
A#|---------------------------------|---------------------------------|---------------------------------|

F#|---------------------------------|---------------------------------|---------------------------------|
C#|---------------------------------|---------------------------------|---------------------------------|
G#|---------------------5-----------|-----------------3-----------5---|---------------------------------|
D#|-0---0---0---1---0-------0---3---|-5-------3---1-------1---0-------|-0---0---0---1---0---0---0---3---|
A#|---------------------------------|---------------------------------|---------------------------------|


F#|---------------------------------|---------------------------------|---------------------------------|
C#|---------------------------------|---------------------------------|---------------------------------|
G#|-----------------3-----------5---|---------------------5-----------|-----------------3-----------5---|
D#|-5-------3---1-------1---0-------|-0---0---0---1---0-------0---3---|-5-------3---1-------1---0-------|
A#|---------------------------------|---------------------------------|---------------------------------|


F#|---------------------------------|---------------------------------|---------------------------------|
C#|---------------------------------|---------------------------------|---------------------------------|
G#|---------------------------------|-----------------3-----------5---|---------------------5-----------|
D#|-0---0---0---1---0---0---0---3---|-5-------3---1-------1---0-------|-0---0---0---1---0-------0---3---|
A#|---------------------------------|---------------------------------|---------------------------------|


F#|---------------------------------|---------------------------------|---------------------------------|
C#|---------------------------------|---------------------------------|---------------------------------|
G#|-----------------3-----------5---|---------------------------------|-----------------3-----------5---|
D#|-5-------3---1-------1---0-------|-0---0---0---1---0---0---0---3---|-5-------3---1-------1---0-------|
A#|---------------------------------|---------------------------------|---------------------------------|

                                     Pre-Chorus 1:
F#|---------------------------------|---------------------------------|---------------------------------|
C#|---------------------------------|---------------------------------|---------------------------------|
G#|---------------------5-----------|---------------------------------|---------------------------------|
D#|-0---0---0---1---0-------0---3---|-5-------5---5---5---5---5---5\\\|\1-------1---1---1---1---1---0---|
A#|---------------------------------|---------------------------------|---------------------------------|


F#|---------------------------------|---------------------------------|---------------------------------|
C#|---------------------------------|---------------------------------|---------------------------------|
G#|---------------------------------|-----------------7---5-----------|---------------------------------|
D#|---------------------------------|-------------------------8---7---|-5-------5---5---5---5---7---8---|
A#|-3-------3---3---3---3---3---3///|/5-------5---5-------------------|---------------------------------|


F#|-----------------------------------|---------------------------------|---------------------------------|
C#|-----------------------------------|---------------------------------|---------------------------------|
G#|-8-------8---8---8---8---8---8//9--|-5-------5---5---5---5---5-------|-----------------7---5-----------|
D#|-----------------------------------|-----------------------------7\\\|\0-------0---0-----------8---7\\\|
A#|-----------------------------------|---------------------------------|---------------------------------|

                                                                           Chorus 1:
F#|-----------------------------------|-----------------------------------|---------------------------------|
C#|-----------------------------------|-----------------------------------|---------------------------------|
G#|-----------------------------------|-----------------------------------|-----------------3-----------5---|
D#|\1------------------------------3--|-3---------------4---0---0--0--0---|-5-------3---1-------1---0-------|
A#|-----------------------------------|-----------------------------------|---------------------------------|


F#|---------------------------------|---------------------------------|---------------------------------|
C#|---------------------------------|---------------------------------|---------------------------------|
G#|---------------------------------|-----------------3-----------5---|---------------------5-----------|
D#|-0---0---0---1---0---0---0---3---|-5-------3---1-------1---0-------|-0---0---0---1---0-------0---3---|
A#|---------------------------------|---------------------------------|---------------------------------|


F#|---------------------------------|---------------------------------|---------------------------------|
C#|---------------------------------|---------------------------------|---------------------------------|
G#|-----------------3-----------5---|---------------------------------|-----------------3-----------5---|
D#|-5-------3---1-------1---0-------|-0---0---0---1---0---0---0---3---|-5-------3---1-------1---0-------|
A#|---------------------------------|---------------------------------|---------------------------------|

                                     Verse 2:
F#|---------------------------------|---------------------------------|---------------------------------|
C#|---------------------------------|---------------------------------|---------------------------------|
G#|---------------------5-----------|-----------------3-----------5---|---------------------------------|
D#|-0---0---0---1---0-------0---3---|-5-------3---1-------1---0-------|-0---0---0---1---0---0---0---3---|
A#|---------------------------------|---------------------------------|---------------------------------|


F#|---------------------------------|---------------------------------|---------------------------------|
C#|---------------------------------|---------------------------------|---------------------------------|
G#|-----------------3-----------5---|---------------------5-----------|-----------------3-----------5---|
D#|-5-------3---1-------1---0-------|-0---0---0---1---0-------0---3---|-5-------3---1-------1---0-------|
A#|---------------------------------|---------------------------------|---------------------------------|


F#|---------------------------------|---------------------------------|---------------------------------|
C#|---------------------------------|---------------------------------|---------------------------------|
G#|---------------------------------|-----------------3-----------5---|---------------------5-----------|
D#|-0---0---0---1---0---0---0---3---|-5-------3---1-------1---0-------|-0---0---0---1---0-------0---3---|
A#|---------------------------------|---------------------------------|---------------------------------|

   Pre-Chorus 2:
F#|---------------------------------|---------------------------------|---------------------------------|
C#|---------------------------------|---------------------------------|---------------------------------|
G#|---------------------------------|---------------------------------|---------------------------------|
D#|-5-------5---5---5---5---5---5\\\|\1-------1---1---1---1---1---0---|---------------------------------|
A#|---------------------------------|---------------------------------|-3-------3---3---3---3---3---3///|


F#|---------------------------------|---------------------------------|-----------------------------------|
C#|---------------------------------|---------------------------------|-----------------------------------|
G#|-----------------7---5-----------|---------------------------------|-8-------8---8---8---8---8---8//10-|
D#|-------------------------8---7---|-5-------5---5---5---5---7---8---|-----------------------------------|
A#|/5-------5---5-------------------|---------------------------------|-----------------------------------|

                                                                       Solo:
F#|---------------------------------|---------------------------------|---------------------------------|
C#|---------------------------------|---------------------------------|---------------------------------|
G#|-5-------5---5---5---5-----------|-----------------7---5-----------|---------------------------------|
D#|-------------------------7---5---|-0-------0---0-----------8---7---|-5---6---5-------X---3---X---1---|
A#|---------------------------------|---------------------------------|---------------------------------|


F#|---------------------------------|---------------------------------|---------------------------------|
C#|---------------------------------|---------------------------------|---------------------------------|
G#|---------------------------------|-----------------------------5---|-7---8---7-------X---5---X-------|
D#|-0---1---0-------X---0---0---3---|-5---6---5-------X---3---3-------|-----------------------------6---|
A#|---------------------------------|---------------------------------|---------------------------------|


F#|---------------------------------|---------------------------------|---------------------------------|
C#|---------------------------------|---------------------------------|---------------------------------|
G#|---------------------------------|---------------------------------|-----------------------------5---|
D#|-5---6---5-------X---3---X---1---|-0---1---0-------X---0---0---3---|-5---6---5-------X---3---X-------|
A#|---------------------------------|---------------------------------|---------------------------------|


F#|---------------------------------|---------------------------------|---------------------------------|
C#|---------------------------------|---------------------------------|---------------------------------|
G#|-7---8---7-------X---5---X-------|---------------------------------|---------------------------------|
D#|-----------------------------6---|-5---6---5-------5---3---X---1---|-0---1---0-------X---0---X---3---|
A#|---------------------------------|---------------------------------|---------------------------------|


F#|---------------------------------|---------------------------------|---------------------------------|
C#|---------------------------------|---------------------------------|---------------------------------|
G#|-----------------------------5---|-7---8---7-------X---5---X-------|---------------------------------|
D#|-5---6---5-------5---3---3-------|-----------------------------6---|-5---6---5-------X---3---X---1---|
A#|---------------------------------|---------------------------------|---------------------------------|


F#|---------------------------------|---------------------------------|---------------------------------|
C#|---------------------------------|---------------------------------|---------------------------------|
G#|---------------------------------|-----------------------------5---|-7---8---7-----------------------|
D#|-0---1---0-------X---0---X---3---|-5---6---5-------X---3---3-------|-------------------------10\\\\\\|
A#|---------------------------------|---------------------------------|---------------------------------|


F#|---------------------------------|---------------------------------|---------------------------------|
C#|---------------------------------|---------------------------------|---------------------------------|
G#|---------------------------------|---------------------------------|---------------------------------|
D#|\0---1---0-----------------------|-0---1---0-----------------------|-0---1---0---------------1-------|
A#|---------------------------------|---------------------------------|---------------------------------|

                                     Chorus 2:
F#|-----------------9---------------|---------------------------------|---------------------------------|
C#|-------------9-------9-----------|---------------------------------|---------------------------------|
G#|-7---7---7---------------7-------|-----------------3-----------5---|---------------------------------|
D#|-----------------------------3---|-5-------3---1-------1---0-------|-0---0---0---1---0---0---0---3---|
A#|---------------------------------|---------------------------------|---------------------------------|


F#|---------------------------------|---------------------------------|---------------------------------|
C#|---------------------------------|---------------------------------|---------------------------------|
G#|-----------------3-----------5---|---------------------5-----------|-----------------3-----------5---|
D#|-5-------3---1-------1---0-------|-0---0---0---1---0-------0---3---|-5-------3---1-------1---0-------|
A#|---------------------------------|---------------------------------|---------------------------------|


F#|---------------------------------|---------------------------------|---------------------------------|
C#|---------------------------------|---------------------------------|---------------------------------|
G#|---------------------------------|-----------------3-----------5---|---------------------5-----------|
D#|-0---0---0---1---0---0---0---3---|-5-------3---1-------1---0-------|-0---0---0---1---0-------0---3---|
A#|---------------------------------|---------------------------------|---------------------------------|

   Break:
F#|---------------------------------|---------------------------------|---------------------------------|
C#|-----------------------------2---|---------------------------------|-----------------------------2---|
G#|-2---------------5---------------|-----------------------------3---|-2---------------5---------------|
D#|---------3---2-------3---2-------|-2---3---2---2---2---0---0-------|---------3---2-------3---2-------|
A#|---------------------------------|---------------------------------|---------------------------------|


F#|---------------------------------|---------------------------------|---------------------------------|
C#|---------------------------------|-----------------------------2---|---------------------------------|
G#|-----------------------------3---|-2---------------5---------------|-----------------------------3---|
D#|-2---3---2---2---2---0---0-------|---------3---2-------3---2-------|-2---3---2---2---2---0---0-------|
A#|---------------------------------|---------------------------------|---------------------------------|

                                                                       Chorus 3:
F#|---------------------------------|---------------------------------|---------------------------------|
C#|-----------------------------2---|---------------------------------|---------------------------------|
G#|-2---------------5---------------|-----------------------------3---|-----------------3-----------5---|
D#|---------3---2-------3---2-------|-2---3---2---2---2---0---0-------|-5-------3---1-------1---0-------|
A#|---------------------------------|---------------------------------|---------------------------------|


F#|---------------------------------|---------------------------------|---------------------------------|
C#|---------------------------------|---------------------------------|---------------------------------|
G#|---------------------------------|-----------------3-----------5---|---------------------5-----------|
D#|-0---0---0---1---0---0---0---3---|-5-------3---1-------1---0-------|-0---0---0---1---0-------0---3---|
A#|---------------------------------|---------------------------------|---------------------------------|


F#|---------------------------------|---------------------------------|---------------------------------|
C#|---------------------------------|---------------------------------|---------------------------------|
G#|-----------------3-----------5---|---------------------------------|-----------------3-----------5---|
D#|-5-------3---1-------1---0-------|-0---0---0---1---0---0---0---3---|-5-------3---1-------1---0-------|
A#|---------------------------------|---------------------------------|---------------------------------|

                                     Outro:
F#|---------------------------------|-----------------------------------|-----------------------------------|
C#|---------------------------------|-----------------------------------|-----------------------------------|
G#|---------------------5-----------|-----------------------------------|-----------------------------------|
D#|-0---0---0---1---0-------0---3---|-1------------------------------3--|-3---------------4---0---0--0--0---|
A#|---------------------------------|-----------------------------------|-----------------------------------|


F#|---------------------------------|
C#|---------------------------------|
G#|---------------------------------|
D#|-5-------------------------------|
A#|---------------------------------|


***********************************
| /   Slide up
| \   Slide down
| X   Dead note
***********************************

Almost there ...

Sign in to get your own page with links to favourite songs and more. You are just one click away...

Login with Facebook Login with Google