Log in

One click and you are in

Login with Facebook Login with Google

Why sign up and log in

Guitar Tabs Explorer
Megadeth bass tabs for Beginning of sorrow

Bass tabs

Title: Beginning Of Sorrow
Album: Super Collider

Track 1: Electric Bass
Tuning: D G C F
Intro
D|---------------------------------------------------------------------------|
G|-------6-------------------------------------------------------------------|
C|------7-7--------7---------4------2-----0----------------------------------|
F|--000-----00000-8-8-00000-5-5-00-3-3-0-1-1-0-------------------------------|

D|---------------------------------------------------------------------------|
G|-------6-------------------------------------------------------------------|
C|------7-7--------7---------4-----------------------------------------------|
F|--000-----00000-8-8-00000-5-5-00---3-3--3-1-1------------------------------|

Chorus
D|---------------------------------------------------------------------------|
G|-------6-------------------------------------------------------------------|
C|------7-7--------7---------4------2-----0----------------------------------|
F|--000-----00000-8-8-00000-5-5-00-3-3-0-1-1-0-------------------------------|

D|---------------------------------------------------------------------------|
G|-------6-------------------------------------------------------------------|
C|------7-7--------7---------4------2-----0----------------------------------|
F|--000-----00000-8-8-00000-5-5-00-3-3-0-1-1-0-------------------------------|

D|---------------------------------------------------------------------------|
G|-------6-------------------------------------------------------------------|
C|------7-7--------7---------4------2-----0----------------------------------|
F|--000-----00000-8-8-00000-5-5-00-3-3-0-1-1-0-------------------------------|

D|---------------------------------------------------------------------------|
G|-------6-------------------------------------------------------------------|
C|------7-7--------7---------4-----------------------------------------------|
F|--000-----00000-8-8-00000-5-5-00---3-3--3-1--------------------------------|

Verse 1.

D|---------------------------------------------------------------------------|
G|---------------------------------------------------------------------------|
C|------7~--------7~--------7~-----2-----0-----------------------------------|
F|--0000--000-8888--000-5555--000-3-3-0-1-1-0--------------------------------|

D|---------------------------------------------------------------------------|
G|---------------------------------------------------------------------------|
C|------7~--------7~--------7~-----------------------------------------------|
F|--0000--000-8888--000-5555--000--3-3---3--1-1--1---------------------------|

D|---------------------------------------------------------------------------|
G|---------------------------------------------------------------------------|
C|------7~--------7~--------7~-----2-----0-----------------------------------|
F|--0000--000-8888--000-5555--000-3-3-0-1-1-0--------------------------------|

D|---------------------------------------------------------------------------|
G|---------------------------------------------------------------------------|
C|------7~--------7~--------7~-----------------------------------------------|
F|--0000--000-8888--000-5555--000-3------------------------------------------|

Chorus

D|---------------------------------------------------------------------------|
G|-------6-------------------------------------------------------------------|
C|------7-7--------7---------4------2-----0----------------------------------|
F|--000-----00000-8-8-00000-5-5-00-3-3-0-1-1-0-------------------------------|

D|---------------------------------------------------------------------------|
G|-------6-------------------------------------------------------------------|
C|------7-7--------7---------4------2-----0----------------------------------|
F|--000-----00000-8-8-00000-5-5-00-3-3-0-1-1-0-------------------------------|

D|---------------------------------------------------------------------------|
G|-------6-------------------------------------------------------------------|
C|------7-7--------7---------4------2-----0----------------------------------|
F|--000-----00000-8-8-00000-5-5-00-3-3-0-1-1-0-------------------------------|

D|---------------------------------------------------------------------------|
G|-------6-------------------------------------------------------------------|
C|------7-7--------7---------4-----------------------------------------------|
F|--000-----00000-8-8-00000-5-5-00---3-3--3-1--------------------------------|

Verse 2.
D|---------------------------------------------------------------------------|
G|---------------------------------------------------------------------------|
C|------7~--------7~--------7~-----2-----0-----------------------------------|
F|--0000--000-8888--000-5555--000-3-3-0-1-1-0--------------------------------|

D|---------------------------------------------------------------------------|
G|---------------------------------------------------------------------------|
C|------7~--------7~--------7~-----------------------------------------------|
F|--0000--000-8888--000-5555--000--3-3---3--1-1--1---------------------------|

D|---------------------------------------------------------------------------|
G|---------------------------------------------------------------------------|
C|------7~--------7~--------7~-----2-----0-----------------------------------|
F|--0000--000-8888--000-5555--000-3-3-0-1-1-0--------------------------------|

D|---------------------------------------------------------------------------|
G|---------------------------------------------------------------------------|
C|------7~--------7~--------7~-----------------------------------------------|
F|--0000--000-8888--000-5555-------------------------------------------------|

Guitar Solo
D|---------------------------------------------------------------------------|
G|---------------------------------------------------------------------------|
C|--------------------------------------------3~------5-4-3------------------|
F|--3-3-3--0-0-1--2~-5~--2~-5~--5-4-3--2~-5~-----1~--------5-4-3-------------|

D|---------------------------------------------------------------------------|
G|---------------------------------------------------------------------------|
C|-------------------------------3~------------------------------------------|
F|--2~-5~--2~-5~--5-4-3--2~-5~------1~---------------------------------------|

D|---------------------------------------------------------------------------|
G|---------------------------------------------------------------------------|
C|--0~-2~---3-2--0--0------------------------------3-2-----------------------|
F|-----------------3-3---2-2--2--2-3-2---1-1--1--0---------------------------|

D|---------------------------------------------------------------------------|
G|---------------------------------------------------------------------------|
C|--0~-2~---3-2--0-7-2-3--6-6--6--6-7-6--5-5--3--3-2-2-----------------------|
F|---------------------------------------------------------------------------|

D|---------------------------------------------------------------------------|
G|---------------------------------------------------------------------------|
C|--0~-2~---3-2--0--0------------------------------3-2-----------------------|
F|-----------------3-3---2-2--2--2-3-2---1-1--1--0---------------------------|

D|---------------------------------------------------------------------------|
G|---------------------------------------------------------------------------|
C|--0~-2~---3-2--0-7-2-3--6-6--6--6-7-6--5-5--3--3-2-2-----------------------|
F|---------------------------------------------------------------------------|


Guitar Pre-verse.
Verse 1.
D|---------------------------------------------------------------------------|
G|---------------------------------------------------------------------------|
C|------7~--------7~--------7~-----2-----0-----------------------------------|
F|--0000--000-8888--000-5555--000-3-3-0-1-1-0--------------------------------|

D|---------------------------------------------------------------------------|
G|---------------------------------------------------------------------------|
C|------7~--------7~--------7~-----------------------------------------------|
F|--0000--000-8888--000-5555--000--3-3---3--1-1--1---------------------------|

D|---------------------------------------------------------------------------|
G|---------------------------------------------------------------------------|
C|------7~--------7~--------7~-----2-----0-----------------------------------|
F|--0000--000-8888--000-5555--000-3-3-0-1-1-0--------------------------------|

D|---------------------------------------------------------------------------|
G|---------------------------------------------------------------------------|
C|------7~--------7~--------7~-----------------------------------------------|
F|--0000--000-8888--000-5555--000--3-3---3--1-1--1---------------------------|

Verse 3.
D|---------3-----------------------------------------------------------------|
G|-------4--4------------4-------------1-------------------------------------|
C|---------------------5---5----------2-2------4-------2---------------------|
F|--2-2-2-----2-2-2-2-2------2-2-2-2-2----2-2-5-5--2--3-3--0-----------------|

D|---------3-----------------------------------------------------------------|
G|-------4--4------------4-------------1-------------------------------------|
C|---------------------5---5----------2-2------4-------2---------------------|
F|--2-2-2-----2-2-2-2-2------2-2-2-2-2----2-2-5-5--2--3-3--0-----------------|

D|---------3-----------------------------------------------------------------|
G|-------4--4------------4-------------1-------------------------------------|
C|---------------------5---5----------2-2------4-------2---------------------|
F|--2-2-2-----2-2-2-2-2------2-2-2-2-2----2-2-5-5--2--3-3--0-----------------|

D|---------3-----------------------------------------------------------------|
G|-------4--4------------4-------------1-------------------------------------|
C|---------------------5---5----------2-2------4-------2---------------------|
F|--2-2-2-----2-2-2-2-2------2-2-2-2-2----2-2-5-5--2--3-3--0-----------------|

End.
D|---------------------------------------------------------------------------|
G|-------6-------------------------------------------------------------------|
C|------7-7--------7---------4------2-----0----------------------------------|
F|--000-----00000-8-8-00000-5-5-00-3-3-0-1-1-0-------------------------------|

D|---------------------------------------------------------------------------|
G|-------6-------------------------------------------------------------------|
C|------7-7--------7---------4------2-----0----------------------------------|
F|--000-----00000-8-8-00000-5-5-00-3-3-0-1-1-0-------------------------------|

D|---------------------------------------------------------------------------|
G|-------6-------------------------------------------------------------------|
C|------7-7--------7---------4------2-----0----------------------------------|
F|--000-----00000-8-8-00000-5-5-00-3-3-0-1-1-0-------------------------------|

D|---------------------------------------------------------------------------|
G|-------6-------------------------------------------------------------------|
C|------7-7--------7---------4-----------------------------------------------|
F|--000-----00000-8-8-00000-5-5-00---3-3--3-1--------------------------------|

Posted By: Diego Aguilar

Almost there ...

Sign in to get your own page with links to favourite songs and more. You are just one click away...

Login with Facebook Login with Google