Search tabs and chords

Search for song, artist or band

Log in

One click and you are in

Login with Facebook Login with Google

Why sign up and log in

Guitar Tabs Explorer
Megadeth guitar tabs for Ashes in your mouth

Guitar tabs with lyrics

Megadeth-Ashes In Your Mouth
tabbed by Jeremy Cox


hello this ashes in your mouth by Megadeth i've added some bits to the
solo the last fast bit but complicated stuff i have'nt worked out, but
sorry i am  12 years old if i was older and more expereienced i would
post more.
 
please if you have the whole solo email me at guitarjez@yahoo.com

Play 3 times                     P.M.==|               P.M.=
||----------------------------------------------------------||
||----------------------------------------------------------||
||15--14---12-10--------------------------------------------||
||15--14---12-10----2---3--2-2--2---------2---3--2-2-2------||
||13--12---10--8--2-2---3-32-2--2-55-33-2-2---3-32-2-2-55-33||
||----------------0---1---10----0-------0---1---10---0------||


||----------------------------------------------------------||
||----------------------------------------------------------||
||15--14--12-10---------------------------------------------||
||15--14--12-10-------------6-7-8-9-11-10-9-8-7-------------||
||13--12--10--8----7-8-9-10---------------------------------||
||----------------------------------------------------------||

||----------------------------------------------------------||
||----------------------------------------------------------||
||----------------------------------------------------------||
||---------7-8-9-10-12-11-10-9-8----------------------------||
||8-9-10-11----------------------9-10-11-12-----------------||
||----------------------------------------------------------||
                                           
||----------------------------------------------------------||
||----------------------------------------------------------||
||----------------------------------------------9-9-9-9-9\--||
||-8-9-10-11-13-12-11-10-9-----------9-10-11-12-9-9-9-9-9\--||
||------------------------10-11-12-13-----------7-7-7-7-7\--||
||----------------------------------------------------------||
                                                              
|----------------------------------------| 
|----------------------------------------| 
|----------------------------------------| 
|-2---------5----2----------5------------| 
|-2---4--5--3-5--2---4-5----3--5---5--5--| 
|-0---2--3--3-3--0---2-3----3--3---5--3--| 
                                             

|------------------| 
|------------------| 
|------------------| 
|--5---------------|
|--3--5---5--5---5-| 
|--3--3---5--3---2-|  
   
verse "People have round shoulders"
|-----------------------------------------------------------------------| 
|-----------------------------------------------------------------------| 
|-----------------------------------------------------------------------| 
|-2--2----2----2--------2--2----2----2--------2--2----2---2-------------| 
|-2--2----2----2--------2--2----2----2--------2--2----2---2-------------| 
|-0----X--0--X-0--X--X--0----X--0--X-0--X--X--0-----X-0-X-0---X--X------| 
                                   

|-----------------------------------------------------------------------| 
|-----------------------------------------------------------------------| 
|-----------------------------------------------------------------------| 
|-2--2----2------3-----2-2----------------------------------------------| 
|-2--2----2------1-----0-05---------------------------------------------| 
|-0----X--0-X-------------3---------------------------------------------|  
               Repeat this as normally, next time 2 times

Chorus   "Where do we go from here?"
|-----------------------------------------------------------------------| 
|-----------------------------------------------------------------------| 
|-----------------------------------------------------------------------| 
|------------5------4-----8-/-9-----9--9--9----12-----12-11-------------| 
|-------5/7------7-----7--6-/-7-----7--7--7----10-----10--9-------------| 
|-0------------------------------------------------0--------------------|  
                  
"God Have Mercy"                               P.M.......
|-----------------------------------------------------------------------| 
|-----------------------------------------------------------------------| 
|-----------------------------------------------------------------------| 
|--------------5------4------------------------------------8-10---------| 
|-------5/7--------7------7-----4/5----------10\9--------8--------------| 
|--0----------------------------2/3-------0---8\7--0---6----------------|  
                                              
" Now We've Rewritten history" Etc
|-----------------------------------------------------------------------| 
|-----------------------------------------------------------------------| 
|-----------------------------------------------------------------------| 
|---------------5--------------5--4---------5---4~----------------------| 
|--------7-------------7-------------6----------------------------------| 
|-0--0-------0-----0------0--------------7------------------------------| 
                                   

|-----------------------------------------------------------------------| 
|-----------------------------------------------------------------------| 
|-----------------------------------2-----------------------------------| 
|-------4------------2--------------------------------------------------| 
|---/5-------5--3------------4---5------5-----5---4---------------------| 
|-----------------------5---------------------3---2---------------------|  
                                                    
  "If Your fighting to live"
|-----------------------------------------------------------------------| 
|-----------------------------------------------------------------------| 
|-----------------------------------------------------------------------| 
|-----------------------------------------------------------------------| 
|2--2-2-2-2--2-2--2-2-2-2--2--2--2--2-2-2----2-2---2-2-2-2-3------------| 
|0--0-0-0-0--0-0--0-0-0-0--0--0--0--0-0-0----0-0---0-0-0-0-1------------|  
                                                                           
"It's ok to DIE"
|-----------------------------------------------------------------------| 
|-----------------------------------------------------------------------| 
|-----------------------------------------------------------------------| 
|----------------------------------------------------------3------------| 
|2--2-2-2-2--2-2--2-2-2-2--2--2--2--2-2-2----2-2---2-2-2-2-1------------| 
|0--0-0-0-0--0-0--0-0-0-0--0--0--0--0-0-0----0-0---0-0-0-0--------------| 
                  
  w/ "The answer to your question is
|-----------------------------------------------------------------------| 
|-----------------------------------------------------------------------| 
|-----------------------------------------------------------------------| 
|-----------------------------4-----------------------------5-----------| 
|-2---2-2-2-2---2-2--2-2-2-2--2---2-2-2-2-2---2-2--2-2-2-2--3----------| 
|-0---0-0-0-0---0-0--0-0-0-0------0-0-0-0-0---0-0--0-0-0-0--------------| 
                                                             
   "Welcome                             To tommorow
|-----------------------------------------------------------------------| 
|-----------------------------------------------------------------------| 
|-----------------------------------------------------------------------| 
|------------------------------------4----------------------------------| 
|-2--2-2-2-2---2-2----2-2-2-2-2-2-2- 2----------------------------------| 
|-0--0-0-0-0---0-0----0-0-0-0-0-0-0-------------------------------------| 
                                                  

Solo Rhythm

|-----------------------------------------------------------------------| 
|-----------------------------------------------------------------------| 
|-----------------------------------------------------------------------| 
|--------------------------------------------4--5--4--------------------| 
|--------------------------------------------2--3--2-----5--4-----------| 
|-0--0-0---0-0-0-0---0-0-0----0--0--0--0--0--------------3--2-----------| 
                                                            

|---------------------------| 
|---------------------------| 
|---------------------------| 
|---------------------------| 
|---------------------------| 
|-2-2-2-2-2-2-2-2-2-2-2-2-2-|  
solo (wide bends)
 
-------------------------------------------------------------------------
-------------------------------------------------------------------------
--9b-9b-9b-9b-12----9-11-12-11-------------------------------------------
-------------------------------------------------------------------------
------------------------------------pick slide-###################-------
-----------------------------------------------###################-------      
       
-------------------------------------------------------------------------
-------------------------------------------------------------------------
14-14h16-12-12h14-11-11h12-9-9h12----------------------------------------
-------------------------------------------------------------------------
-------------------------------------------------------------------------
-------------------------------------------------------------------------
 
-------------------------------------------------------------------------
-------------------------------------------------------------------------
--9-9-14b-9--12-12-16b-12---------------the next part is to tricky-------
-------------------------------------------------------------------------
-------------------------------------------------------------------------
-------------------------------------------------------------------------
 
go to the "if your fighting to live part"
 
the solo continues
-------------------------------------------------------------------------
-------------------------------------------------------------------------
-------------------------------------------------------------------------
-------------------------------------------------------------------------
-7-7-7-7-10-7-7-7-7--10-10-10-10-14-10-10-10-10--14-14-14-14-17-14-14-14-
 
-------------------------------------------------------------------------
-------------------------------------------------------------------------
-------------------------------------------------------------------------
-------------------------------------------------------------------------
-14-10--------------------next bit work out your self--------------------
-------------------------------------------------------------------------
 
fast bit
 
--12-12-15-12--12-12-15-12--12-12-15-12--12-12-15-12--12-12h17--12-12h17-
-------------------------------------------------------------------------
-------------------------------------------------------------------------
-------------------------------------------------------------------------
-------------------------------------------------------------------------
-------------------------------------------------------------------------
 
-12--12-12h17-12--12-12h17-12--12-12h19-12--12-12h19-12--12-12h19-12-----
-------------------------------------------------------------------------
-------------------------------------------------------------------------
-------------------------------------------------------------------------
-------------------------------------------------------------------------
-------------------------------------------------------------------------
 
--12-12h19-12 x2----------then 19-19-19-19-19-19-19-19-------------------
-------------------------------------------------------------------------
-------------------------------------------------------------------------
-------------------------------------------------------------------------
-------------------------------------------------------------------------
-------------------------------------------------------------------------
guitar duel    

GTR 1
|-19--22--19--17--------------------------------------------------------| 
|------------------19---------------------------------------------------| 
|--------------------19-------------------------------------------------| 
|----------------------17-------------------------16---17---------------| 
|-----------------------------------------------------------------------| 
|-----------------------------------------------------------------------| 
|                                                                       |
|                                                                       |
|GTR  II                                                                |
|-15--19--15--14--------------------------------------------------------| 
|-----------------15----------------------------------------------------| 
|-------------------14--------------------------------------------------| 
|----------------------14-------------------------12---14---------------| 
|-----------------------------------------------------------------------| 
|-----------------------------------------------------------------------| 
GTR 1
|-----------------------------------------------------------------------| 
|----------------------15-17p15--17p15----------------------------------| 
|----------16-17p16h17-----------------17p16--17p16---------------------| 
|-17p16h17---------------------------------------------17---------------| 
|-----------------------------------------------------------------------| 
|-----------------------------------------------------------------------| 
|                                                                       |
|                                                                       |
|GTR 2                                                                  |
|-----------------------------------------------------------------------| 
|----------------------12-13p12--13p12----------------------------------| 
|----------12-14p12h14-----------------14p12--14p12---------------------| 
|-14p12h14---------------------------------------------14---------------| 
|-----------------------------------------------------------------------| 
|-----------------------------------------------------------------------| 

GTR 1
|--------------------17-19-20-------------------------------------------| 
|----------17-19-20-----------------------------------------------------| 
|-----------------------------------------------------------------------| 
|-16--17----------------------------------------------------------------| 
|-----------------------------------------------------------------------| 
|-----------------------------------------------------------------------| 
|                                                                       |
|                                                                       |
|GTR 2                                                                  |
|-----------------------15--17------------------------------------------| 
|-------------15-17-19--------------------------------------------------| 
|---------17------------------------------------------------------------| 
|-----14----------------------------------------------------------------| 
|-17--------------------------------------------------------------------| 
|-----------------------------------------------------------------------| 


GTR 1                       
|-20--19--17------------------------------------------------------------| 
|-------------20-19-17--------------------------------------------------| 
|-----------------------------------------------------------------------| 
|-----------------------------------------------------------------------| 
|-----------------------------------------------------------------------| 
|-----------------------------------------------------------------------| 
|                                                                       |
|                                                                       |
|GTR 2                                                                  |
|-17--15--14------------------------------------------------------------| 
|------------17--15-----------------------------------------------------| 
|--------------------17-------------------------------------------------| 
|-----------------------------------------------------------------------| 
|-----------------------------------------------------------------------| 
|-----------------------------------------------------------------------| 
      
                      
GTR 1
|-15p12h15p12-16p13h16p13-17p14h17p14-18p15h18p15-19p16h19p16-20p17h20p17 
|-----------------------------------------------------------------------| 
|-----------------------------------------------------------------------| 
|-----------------------------------------------------------------------| 
|-----------------------------------------------------------------------| 
|-----------------------------------------------------------------------| 
|                                                                       |
|                                                                       |
|GTR 2                                                                  |
|-10p7h10p7-11p8h11p8-12p9h12p9-13p10h13p10-14p11h14p11-15p12h15p12-----| 
|-----------------------------------------------------------------------| 
|-----------------------------------------------------------------------| 
|-----------------------------------------------------------------------| 
|-----------------------------------------------------------------------| 
|-----------------------------------------------------------------------| 

GTR 1
|-21p18h21p18--22p19h22p19-22^------------------------------------------| 
|-----------------------------------------------------------------------| 
|-----------------------------------------------------------------------| 
|-----------------------------------------------------------------------| 
|-----------------------------------------------------------------------| 
|-----------------------------------------------------------------------| 
|                                                                       |
|                                                                       |
|GTR 2                                                                  |
|-16p13h16p13--17p14h17p14--17^-----------------------------------------| 
|-----------------------------------------------------------------------| 
|-----------------------------------------------------------------------| 
|-----------------------------------------------------------------------| 
|-----------------------------------------------------------------------| 
|-----------------------------------------------------------------------|  
                                        
thanx email me for corrections
gui

Almost there ...

Sign in to get your own page with links to favourite songs and more. You are just one click away...

Login with Facebook Login with Google