Log in

One click and you are in

Login with Facebook Login with Google

Why sign up and log in

Guitar Tabs Explorer
Megadeth bass tabs for Ashes in your mouth

Bass tabs

Band- Megadeth
Song- Ashes In Your Mouth


Intro Riff
G||----------------------|----------------------|-----------------------------|
D||*----------8----------|----------------------|-----------------------------|
A||*------8--------------|------7---------------|---------------------5-5-3-3-|
E||---6------------------|--5---------3----1----|--0-0--0-1--1-0---0----------|

               4x    Line for short Upscale solo
------------------------------||--|--------------------------|
-----------------------------*||--|--------------------------|
---------------------5-5-3-3-*||--|--7--7--7--7--7--7--7--7--|
--0-0--0-1--1-0---0-----------||--|--------------------------|

--------------------------|--------------------------|
--------------------------|--------------------------|
--8--8--8--8--8--8--8--8--|--9--9--9--9--9--9--9--9--|
--------------------------|--------------------------|


                       2nd Riff
-------------------------------|--||--------------------------|
-------------------------------|--||*-------------------------|
--10--10--10--10--7-7-7-7-7----|--||*-------------------------|
-------------------------------|--||---0----2-3-3-3-2--0------|


                 Riff during vocals    2x
-----------------------------| |-------------------------||
----------------------------*| |*-----------------------*||
----------------------------*| |*-----------------------*||
--2-3-3-3-3--5--3--5--3--2---| |---0--0----0----0----0---||

                          2x
------------------------||-------------------------||------------------------|
------------------------||*-----------------------*||------------------------|
---------------1--0-----||*-----------------------*||---------------1--0-----|
--0--0----0----------3--||---0--0----0----0----0---||--0--0----0----------3--|


               Riff:"The end is finally here....."
---------------------|--|--------------------------|---------------------------|
---------------------|--|--------------------------|---------------------------|
----1--0-------------|--|--7--7--7--7--7--7--7--7--|--7--7--7--10-----10--9----|
----------3----------|--|--------------------------|---------------0-----------|


--------------------------|-------------------------|--------------------------|
--------------------------|-------------------------|--------------------------|
--5--5--5--5--5--5--5--5--|--5--5--5--8-----8--7----|--3--3--3--3--3--3--3--3--|
--------------------------|--------------0----------|--------------------------|


------------------------|--------------------------|---------||
------------------------|--------------------------|--8--10--||
--3--3--3--6----6--5----|-----------------------8--|---------||
------------------------|--2--3--0--8--7--0--6-----|---------||

Almost there ...

Sign in to get your own page with links to favourite songs and more. You are just one click away...

Login with Facebook Login with Google