Search tabs and chords

Search for song, artist or band

Log in

One click and you are in

Login with Facebook Login with Google

Why sign up and log in

Guitar Tabs Explorer
Megadeth bass tabs for Angry again

Bass tabs with lyrics

Tuning: Half-step down



LEGEND:
r = rest
() = sustained note
^ = 1/4 bend

INTRO:

Gb |-----------------|-3-4-----7-8------|
Db |-0-1-----4-5-----|-----5-------9----|
Ab |-----2-------6---|-------6-------10-|
Eb |-------3-------7-|------------------|
     1 & 2 & 3 & 4 &   1 & 2 & 3 & 4 &

Gb |-----------------|-----------------|-----------------|-----------------|
Db |-----------------|-----------------|-----------------|-----------------|
Ab |-----------------|-----------------|-----------------|-----------------|
Eb |-0-0-0-0-0-0-0-0-|-0-0-0-0-0-0-0-0-|-0-0-0-0-0-0-0-0-|-0-0-0-0-0-5-4-3-|
     1 & 2 & 3 & 4 &   1 & 2 & 3 & 4 &   1 & 2 & 3 & 4 &   1 & 2 & 3 & 4 &

Gb |-----------------|-----------------|-----------------|-----------------|
Db |-----------------|-----------------|-----------------|-----------------|
Ab |-----------------|-----------------|---------------5-|(5)----3---------|
Eb |-0-0-0-0-0-0-0-0-|-0-0-0-0-0-5-4-3-|-r-5-4-3-r-5-4---|---0-0-----3^--0-|
     1 & 2 & 3 & 4 &   1 & 2 & 3 & 4 &   1 & 2 & 3 & 4 &   1 & 2 & 3 & 4 &

Gb |-----------------|-----------------|-----------------|-----------------|
Db |-----------------|-----------------|-----------------|-----------------|
Ab |-----------------|-----------------|-----------------|-----------------|
Eb |-r-0-0-0-0-0-0-0-|-0-0-0-0-0-0-0-0-|-0-0-0-0-0-0-0-0-|-0-0-0-0-0-5-4-3-|
     1 & 2 & 3 & 4 &   1 & 2 & 3 & 4 &   1 & 2 & 3 & 4 &   1 & 2 & 3 & 4 &

Gb |-----------------|-----------------|-----------------|-----------------|
Db |-----------------|-----------------|-----------------|-----------------|
Ab |-----------------|-----------------|---------------5-|(5)----3---------|
Eb |-0-0-0-0-0-0-0-0-|-0-0-0-0-0-5-4-3-|-r-5-4-3-r-5-4---|---0-0-----3^--0-|
     1 & 2 & 3 & 4 &   1 & 2 & 3 & 4 &   1 & 2 & 3 & 4 &   1 & 2 & 3 & 4 &

VERSE 1 (x2):

Gb |-----------------|-----------------|-----------------|-----------------|
Db |-----------------|-----------------|-----------------|-----------------|
Ab |-----------------|-----------------|-----------------|-----------------|
Eb |-r-0-0-0-0-0-0-0-|-0-0-0-0-0-0-0-0-|-0-0-0-0-0-0-0-0-|-0-0-0-0-0-5-4-3-|
     1 & 2 & 3 & 4 &   1 & 2 & 3 & 4 &   1 & 2 & 3 & 4 &   1 & 2 & 3 & 4 &

Gb |-----------------|-----------------|-----------------|-----------------|
Db |-----------------|-----------------|-----------------|-----------------|
Ab |-----------------|-----------------|---------------5-|(5)----3---------|
Eb |-0-0-0-0-0-0-0-0-|-0-0-0-0-0-0-0-0-|-0-0-0-0-0-0-0---|---0-0-----3^--0-|
     1 & 2 & 3 & 4 &   1 & 2 & 3 & 4 &   1 & 2 & 3 & 4 &   1 & 2 & 3 & 4 &

Gb |-----------------|-----------------|-----------------|-----------------|
Db |-----------------|-----------------|-----------------|-----------------|
Ab |-----------------|-----------------|-----------------|-----------------|
Eb |-r-0-0-0-0-0-0-0-|-0-0-0-0-0-0-0-0-|-0-0-0-0-0-0-0-0-|-0-0-0-0-0-5-4-3-|
     1 & 2 & 3 & 4 &   1 & 2 & 3 & 4 &   1 & 2 & 3 & 4 &   1 & 2 & 3 & 4 &

Gb |-----------------|-----------------|-----------------|-----------------|
Db |-----------------|-----------------|-----------------|-----------------|
Ab |-----------------|-----------------|---------------5-|(5)----3---------|
Eb |-0-0-0-0-0-0-0-0-|-0-0-0-0-0-5-4-3-|-r-5-4-3-r-5-4---|---0-0-----3^--0-|
     1 & 2 & 3 & 4 &   1 & 2 & 3 & 4 &   1 & 2 & 3 & 4 &   1 & 2 & 3 & 4 &


PRE-CHORUS:

Gb |-----------------|-3-4-----7-8------|
Db |-0-1-----4-5-----|-----5-------9----|
Ab |-----2-------6---|-------6-------10-|
Eb |-------3-------7-|------------------|
     1 & 2 & 3 & 4 &   1 & 2 & 3 & 4 &


CHORUS 1:

Gb |-----------------|-----------------|-----------------|-----------------|
Db |-----------------|-----------------|-----------------|-----------------|
Ab |-----------------|-------3---5-5---|---------------3-|(3)----5---------|
Eb |-0-0-0-0-0-3-2-0-|-0-0-0---0-----0-|-0-0-0-0-0-3-2---|---0-0-----0-0-0-|
     1 & 2 & 3 & 4 &   1 & 2 & 3 & 4 &   1 & 2 & 3 & 4 &   1 & 2 & 3 & 4 &

Gb |-----------------|-----------------|-----------------|-----------------|-----------------|
Db |-----------------|-----------------|-----------------|-----------------|-----------------|
Ab |-----------------|-------3---5-5---|---------------3-|(3)----2---------|-------2---------|
Eb |-0-0-0-0-0-3-2-0-|-0-0-0---0-----0-|-0-0-0-0-0-3-2---|---0-0-----0-0-5-|(5)0-0-----3^--0-|
     1 & 2 & 3 & 4 &   1 & 2 & 3 & 4 &   1 & 2 & 3 & 4 &   1 & 2 & 3 & 4 &   1 & 2 & 3 & 4 &


VERSE 2:

Gb |-----------------|-----------------|-----------------|-----------------|
Db |-----------------|-----------------|-----------------|-----------------|
Ab |-----------------|-----------------|-----------------|-----------------|
Eb |-r-0-0-0-0-0-0-0-|-0-0-0-0-0-0-0-0-|-0-0-0-0-0-0-0-0-|-0-0-0-0-0-5-4-3-|
     1 & 2 & 3 & 4 &   1 & 2 & 3 & 4 &   1 & 2 & 3 & 4 &   1 & 2 & 3 & 4 &

Gb |-----------------|-----------------|-----------------|-----------------|
Db |-----------------|-----------------|-----------------|-----------------|
Ab |-----------------|-----------------|---------------5-|(5)----3---------|
Eb |-0-0-0-0-0-0-0-0-|-0-0-0-0-0-5-4-3-|-r-5-4-3-r-5-4---|---0-0-----3^--0-|
     1 & 2 & 3 & 4 &   1 & 2 & 3 & 4 &   1 & 2 & 3 & 4 &   1 & 2 & 3 & 4 &


PRE-CHORUS:

Gb |-----------------|-3-4-----7-8------|
Db |-0-1-----4-5-----|-----5-------9----|
Ab |-----2-------6---|-------6-------10-|
Eb |-------3-------7-|------------------|
     1 & 2 & 3 & 4 &   1 & 2 & 3 & 4 &


CHORUS 2:

Gb |-----------------|-----------------|-----------------|-----------------|
Db |-----------------|-----------------|-----------------|-----------------|
Ab |-----------------|-------3---5-5---|---------------3-|(3)----5---------|
Eb |-0-0-0-0-0-3-2-0-|-0-0-0---0-----0-|-0-0-0-0-0-3-2---|---0-0-----0-0-0-|
     1 & 2 & 3 & 4 &   1 & 2 & 3 & 4 &   1 & 2 & 3 & 4 &   1 & 2 & 3 & 4 &

Gb |-----------------|-----------------|-----------------|-----------------|-----------------|
Db |-----------------|-----------------|-----------------|-----------------|-----------------|
Ab |-----------------|-------3---5-5---|---------------3-|(3)----2---------|-------2---------|
Eb |-0-0-0-0-0-3-2-0-|-0-0-0---0-----0-|-0-0-0-0-0-3-2---|---0-0-----0-0-5-|(5)0-0-----3^--0-|
     1 & 2 & 3 & 4 &   1 & 2 & 3 & 4 &   1 & 2 & 3 & 4 &   1 & 2 & 3 & 4 &   1 & 2 & 3 & 4 &


BRIDGE:

Gb |-----------------|-----------------|-----------------|-----------------|
Db |-----------------|-----------------|-----------------|-----------------|
Ab |-----------------|-----------------|-----------------|-----------------|
Eb |-r-0-0-0-r-0-0-0-|-r-1-1-1-r-1-1-1-|-r-2-2-2-r-2-2-2-|-r-3-3-3-r-3-3-3-|
     1 & 2 & 3 & 4 &   1 & 2 & 3 & 4 &   1 & 2 & 3 & 4 &   1 & 2 & 3 & 4 &

Gb |-----------------|-----------------|-----------------|-----------------|
Db |-----------------|-----------------|-----------------|-----------------|
Ab |-----------------|-----------------|---------------5-|(5)----3---------|
Eb |-r-4-4-4-r-4-4-4-|-r-5-5-5-r-5-5-5-|-r-6-6-6-r-6-6---|---0-0-----3^0-0-|
     1 & 2 & 3 & 4 &   1 & 2 & 3 & 4 &   1 & 2 & 3 & 4 &   1 & 2 & 3 & 4 &


GUITAR SOLO:
                 (  x4  )
Gb |-----------------|-----------------|
Db |-----------------|-----------------|
Ab |---------------5-|(5)----3---------|
Eb |-0-0-0-0-0-0-0---|---0-0-----3^0-0-|
     1 & 2 & 3 & 4 &   1 & 2 & 3 & 4 &

Gb |-----------------|-----------------|-----------------|-----------------|
Db |-----------------|-0-1-------------|-----------------|-0-1-----4-5-----|
Ab |-----------------|-----2-----------|-----------------|-----2-------6---|
Eb |-0-0-0-0-0-0-0-0-|-------3-2-1-2-3-|-0-0-0-0-0-0-0-0-|-------3-------7-|
     1 & 2 & 3 & 4 &   1 & 2 & 3 & 4 &   1 & 2 & 3 & 4 &   1 & 2 & 3 & 4 &

Gb |-----------------|-----------------|-----------------|-----------------|
Db |-----------------|-2-3-------------|-----------------|-2-3-------------|
Ab |-----------------|-----4-----------|-----------------|-----4-----------|
Eb |-2-------2-2-2-2-|-------5-4-3-4-5-|-2---------------|-------5-4-3-2-1-|
     1 & 2 & 3 & 4 &   1 & 2 & 3 & 4 &   1 & 2 & 3 & 4 &   1 & 2 & 3 & 4 &


VERSE 3:

Gb |-----------------|-----------------|-----------------|-----------------|
Db |-----------------|-----------------|-----------------|-----------------|
Ab |-----------------|-----------------|-----------------|-----------------|
Eb |-0-0-0-0-0-0-0-0-|-0-0-0-0-0-0-0-0-|-0-0-0-0-0-0-0-0-|-0-0-0-0-0-5-4-3-|
     1 & 2 & 3 & 4 &   1 & 2 & 3 & 4 &   1 & 2 & 3 & 4 &   1 & 2 & 3 & 4 &

Gb |-----------------|-----------------|-----------------|-----------------|
Db |-----------------|-----------------|-----------------|-----------------|
Ab |-----------------|-----------------|---------------5-|(5)----3---------|
Eb |-0-0-0-0-0-0-0-0-|-0-0-0-0-0-0-0-0-|-0-0-0-0-0-0-0---|---0-0-----3^--0-|
     1 & 2 & 3 & 4 &   1 & 2 & 3 & 4 &   1 & 2 & 3 & 4 &   1 & 2 & 3 & 4 &

Gb |-----------------|-----------------|-----------------|-----------------|
Db |-----------------|-----------------|-----------------|-----------------|
Ab |-----------------|-----------------|-----------------|-----------------|
Eb |-r-0-0-0-0-0-0-0-|-0-0-0-0-0-0-0-0-|-0-0-0-0-0-0-0-0-|-0-0-0-0-0-5-4-3-|
     1 & 2 & 3 & 4 &   1 & 2 & 3 & 4 &   1 & 2 & 3 & 4 &   1 & 2 & 3 & 4 &

Gb |-----------------|-----------------|-----------------|-----------------|
Db |-----------------|-----------------|-----------------|-----------------|
Ab |-----------------|-----------------|---------------5-|(5)----3---------|
Eb |-0-0-0-0-0-0-0-0-|-0-0-0-0-0-5-4-3-|-r-5-4-3-r-5-4---|---0-0-----3^--0-|
     1 & 2 & 3 & 4 &   1 & 2 & 3 & 4 &   1 & 2 & 3 & 4 &   1 & 2 & 3 & 4 &


PRE-CHORUS:

Gb |-----------------|-3-4-----7-8------|
Db |-0-1-----4-5-----|-----5-------9----|
Ab |-----2-------6---|-------6-------10-|
Eb |-------3-------7-|------------------|
     1 & 2 & 3 & 4 &   1 & 2 & 3 & 4 &


CHORUS 3:

Gb |-----------------|-----------------|-----------------|-----------------|
Db |-----------------|-----------------|-----------------|-----------------|
Ab |-----------------|-------3---5-5---|---------------3-|(3)----5---------|
Eb |-0-0-0-0-0-3-2-0-|-0-0-0---0-----0-|-0-0-0-0-0-3-2---|---0-0-----0-0-0-|
     1 & 2 & 3 & 4 &   1 & 2 & 3 & 4 &   1 & 2 & 3 & 4 &   1 & 2 & 3 & 4 &

Gb |-----------------|-----------------|-----------------|-----------------|
Db |-----------------|-----------------|-----------------|-----------------|
Ab |-----------------|-------3---5-5---|---------------3-|(3)----2---------|
Eb |-0-0-0-0-0-3-2-0-|-0-0-0---0-----0-|-0-0-0-0-0-3-2---|---0-0-----0-0-5-|
     1 & 2 & 3 & 4 &   1 & 2 & 3 & 4 &   1 & 2 & 3 & 4 &   1 & 2 & 3 & 4 &

Gb |-----------------|-----------------|-----------------|
Db |-----------------|-----------------|-----------------|
Ab |-------2-------3-|(3)r---2---r-----|-------2---------|
Eb |(5)0-0-----3^----|---------------5-|(5)r-------3^0-0-|
     1 & 2 & 3 & 4 &   1 & 2 & 3 & 4 &   1 & 2 & 3 & 4 &


OUT-CHORUS:

Gb |-----------------|-----------------|-----------------|-----------------|
Db |-----------------|-----------------|-----------------|-----------------|
Ab |-----------------|-------3---5-5---|---------------3-|(3)----5---------|
Eb |-0-0-0-0-0-3-2-0-|-0-0-0---0-----0-|-0-0-0-0-0-3-2---|---0-0-----0-0-0-|
     1 & 2 & 3 & 4 &   1 & 2 & 3 & 4 &   1 & 2 & 3 & 4 &   1 & 2 & 3 & 4 &

Gb |-----------------|-----------------|-----------------|-----------------|
Db |-----------------|-----------------|-----------------|-----------------|
Ab |-----------------|-------3---5-5---|---------------3-|(3)----2---------|
Eb |-0-0-0-0-0-3-2-0-|-0-0-0---0-----0-|-0-0-0-0-0-3-2---|---0-0-----0-0-5-|
     1 & 2 & 3 & 4 &   1 & 2 & 3 & 4 &   1 & 2 & 3 & 4 &   1 & 2 & 3 & 4 &

Gb |-----------------|-----------------|-3-4-------------|-----------------|
Db |-----------------|-0-1-----4-5-----|-----5-----------|-----------------|
Ab |-------2---------|-----2-------6---|-------6---------|-----------------|
Eb |(5)0-0-----3^----|-------3-------7-|---------2-1-2-3-|-0-r-------------|
     1 & 2 & 3 & 4 &   1 & 2 & 3 & 4 &   1 & 2 & 3 & 4 &   1 & 2 & 3 & 4 &

Follow along with the song:

Almost there ...

Sign in to get your own page with links to favourite songs and more. You are just one click away...

Login with Facebook Login with Google