Guitar Tabs Explorer
Megadeth bass tabs for Almost honest

Almost Honest bass tab


Be the first to rate

Almost Honest bass tab by Megadeth

Bass tabs

Print

0:16 Intro
G|-----------------------------------------------------------------------|
D|------2---------------------------2-------------------------------0-2--|
A|----2------2--0-----------------2-------2---0-----------------0--------|
E|--0----2-3--3---0-0-0-0-0-0-0-0-----2-3---3---0-0-0-0-0-0-0-0---0------|

0:27  Couplet
G|-------------------------------|
D|------2------------------------|X6
A|----2------2--0----------------|
E|--0----2-3--3---0-0-0-0-0-0-0--|

G|--------------------------------------------------------------------------------------|
D|------2-------------------------------------------------------------------------------|
A|----2------2--0---------------0---------------0---0-1-2--2-0-1-2-2-0-1-2-2-0-1-2—1-0--|
E|--0----2-3--3---0-0-0-0-0-0-0---0-0-0-0-0-0-0---0-------------------------------------|

G|----------------------------------------------------------------|
D|--------------------------------2-------------------------------|X2
A|------------------0---------0-2------------------0—0------------|
E|--0-0-0-0-0-0-0-0---0-0-0-0------0-0-0-0-0-0-0-0------2--3-2-0--|

1:13  Couplet
G|-----------------------------------|   G|-------------------------------|
D|-----------------------------------|X4 D|------2------------------------|X2
A|-----------------------------------|   A|----2------2--0----------------|
E|--0-0-0-0-0-0-0-0-0-0-0-0-0-0-0-0--|   E|--0----2-3--3---0-0-0-0-0-0-0--|

G|--------------------------------------------------------------------------------------|
D|------2-------------------------------------------------------------------------------|
A|----2------2--0---------------0---------------0---0-1-2--2-0-1-2-2-0-1-2-2-0-1-2—1-0--|
E|--0----2-3--3---0-0-0-0-0-0-0---0-0-0-0-0-0-0---0-------------------------------------|

G|----------------------------------------------------------------|
D|--------------------------------2-------------------------------|X4
A|------------------0---------0-2------------------0—0------------|
E|--0-0-0-0-0-0-0-0---0-0-0-0------0-0-0-0-0-0-0-0------2--3-2-0--|

2:29  Pont
G|-------------------------------|
D|-------------------------------|
A|--7--6-6-6--5--4-4-4—3--5-5-5--|
E|-------------------------------|

2:29  Solo
G|-------------------------------|
D|------2------------------------|X8
A|----2------2--0----------------|
E|--0----2-3--3---0-0-0-0-0-0-0--|

G|------------------------------------|
D|------------------------------------|
A|--1-2--2-0-1-2-2-0-1-2-2-0-1-2-1-0--|
E|------------------------------------|

3:14  Refrain
G|---------------------------------------------------------------|
D|--------------------------------2------------------------------|X4
A|------------------0---------0-2------------------0—0-----------|
E|--0-0-0-0-0-0-0-0---0-0-0-0------0-0-0-0-0-0-0-0------2-3-2-0--|

G|-----------------------------------|
D|--------------------------------2--|X8
A|------------------0---------0-2----|
E|--0-0-0-0-0-0-0-0---0-0-0-0--------|

Comment this song and these bass tabs

Do you have corrections, comments on the bass tabs, thoughts about the song or a message to the author? Write them below.