Log in

One click and you are in

Login with Facebook Login with Google

Why sign up and log in

Guitar Tabs Explorer
Megadeth bass tabs for 99 ways too die

Bass tabs

99 ways to die is a great song,
 intro              verse
|--------------------------------|--------------------------------|
|--------------------------------|.-------------------------------|
|-2-1---2-1---2-1---2-1----------|.----------7--------------------|
|--------------------------3-3---|---0-0-0-0---0-0-0-0-0-0-0-0-0--|

           4x bridge      2x
|----------------------|--------------------|---------------------|
|---------------------.|.---------0---0----.|-----------0---0-----|
|---------7-------7-5-.|.-----------5---2--.|---------------------|
|-0-0-0-0-----3-4------|--0-2-3-5-----------|---0-2-3-5---5---5---|

                chorus
|-----------------------------|-----------------------------------|
|------------------4---4-5----|.----------------------------------|
|--2---3-2-6-3-7-6---7--------|.---------7---2-1-1-1-1-1----------|
|----5------------------------|--0-0-0-0---0-------------0-1-0-0--|

                2x
|--------------------------------|--------------------------------|
|-------------------------------.|--------------------------------|
|------7---2-1-2-1--------------.|------0-------------------------|
|--0-0-------------1-------------|--2-0---3-2-1-------------------|

 verse                             4x
|--------------------------------|--------------------------------|
|.-------------------------------|-------------------------------.|
|.----------7--------------------|---------7-------7-5-----------.|
|---0-0-0-0---0-0-0-0-0-0-0-0-0--|-0-0-0-0-----3-4----------------|

 bridge    2x
|-----------------|-----------------|-----------------------------|
|.-------0---0---.|---------0---0---|-------------------4---4-5---|
|.---------5---2-.|-----------------|---2---3-2-6-3-7-6---7-------|
|-0-2-3-5---------|-0-2-3-5---5---5-|-----5-----------------------|

 chorus                      4x
|---------------------------------|------------------|------------|
|.--------------------------------|-----------------.|------------|
|.--------7---2-1-1-1-1-1---------|----7---2-1-2-1--.|----0-------|
|-0-0-0-0---0-------------0-1-0-0-|0-0-------------1-|2-0---3-2-1-|

 pr solo             solo             4x
|--------------------------------|--------------------------------|
|--------------------------------|.------------------------------.|
|-----0--------------------------|.----------------------0-1-0---.|
|-2-0---3-2-1-2-0-2-3-0-2-3-2-1-2|-2-2-2-2-2-2-2-2-2-2-2-------3--|

                3x
|--------------------------------|--------------------------------|
|.------------------------------.|--------------------------------|
|.------------------------------.|-0-0-0-0-0-0-0-0-1-1-1-1-0------|
|--3-3-3-3-3-3-3-3-3-3-3-0-1-2---|---------------------------2-1--|

|--------------------------------|--------------------------------|
|--------------------------------|--------------------------------|
|--------------------------------|--------------------------------|
|-------0-0-0--------0-0-0-------|------0-0-0-------0-0-0---------|

                       2x
|--------------------------------|-------------|------------------|
|--------------------------------|.-----------.|------------------|
|--------------------------------|.-----------.|------------------|
|--3-4-3-2----0-0-0-----0-0-0----|--3-4-3-2-0--|-----0------0-----|


verse                             4x
|--------------------------------|--------------------------------|
|.-------------------------------|-------------------------------.|
|.-----------7-------------------|---------7-------7-5-----------.|
|----0-0-0-0---0-0-0-0-0-0-0-0-0-|-0-0-0-0-----3-4----------------|


bridge    2x
|-----------------|----------------|------------------------------|
|.-------0---0---.|---------0---0--|------------------4---4-5-----|
|.---------5---2-.|----------------|--2---3-2-6-3-7-6---7---------|
|-0-2-3-5---------|-0-2-3-5---5---5|----5-------------------------|

Almost there ...

Sign in to get your own page with links to favourite songs and more. You are just one click away...

Login with Facebook Login with Google