Search tabs and chords

Search for song, artist or band

Log in

One click and you are in

Login with Facebook Login with Google

Why sign up and log in

Guitar Tabs Explorer
Megadeth bass tabs for 502

Bass tabs

intro

bass starts
|-------------------------------------------------|
|-------------------------------------------------|
|-------------------------------------------------|
|---7-6-5--7-6-5---7-6-5---7-6-5---7-6-5---7-6-5--|

Verse
|-----------------------|
|-----------------------|
|---0----3----2---3--5--|
|-----------------------|

Pre-Chorus
|--------------------------------------|
|--------------------------------------|
|-------------2--5p4p2---5p4p2--4p3p2--|
|-2-2-2-3--2---------------------------|

Chorus
|-------------------------------------------------------------------------------------|
|-------------------------------------------------------------------------------------|
|--2-----2-2-2------2-2---------------------------------------------5---5-5-5----5-5--|
|------------------------3------3-3-3-------3-3-2-----2-2-2-----2-2-------------------|

End of Chorus Riff
|-------------------|
|-------------------|
|-------------------|
|-7--6--5--7--2--3--|

Solo Rhythm
|------------------------------------------------------------------|
|------------------------------------------------------------------|
|--000000000-3--0000000000--2--00000000000--3--0000-5-5--0000------|
|--------------------------------------------------------------5---|

rest car fxs

Solo Rhythm
|------------------------------------------------------------------|
|------------------------------------------------------------------|
|------------------------------------------------------------------|
|5---5---5---5---7---7---7---7---8---8---8---8---10---10---10-9-8--|

Outro
|----------------|
|----------------|
|-5--4--3--5-----|
|-----------4-5--|

its such a great song. a classic dave mustaine song.

Almost there ...

Sign in to get your own page with links to favourite songs and more. You are just one click away...

Login with Facebook Login with Google