Log in

One click and you are in

Login with Facebook Login with Google

Why sign up and log in

Guitar Tabs Explorer
Megadeth bass tabs for 44 minutes

Bass tabs

Tuning: EADG


 E E E H    E       E E E H    E
-----------------------|-------|-----------------------|-------|
-----------------------|-------|-----------------------|-------|
-----------------------|-------|-----------------------|-------|
--0--0--0--------------|-------|--0--0--0--------------|-------|
 E E E H    E       E E E H    E
-----------------------|-------|-----------------------|-------|
-----------------------|-------|-----------------------|-------|
-----------------------|-------|-----------------------|-------|
--0--0--0--------------|-------|--0--0--0--------------|-------|


 E E E Q.   S E.   E E E Q.   S E.   E E E E E E S E.
------------------------|------------------------|--------------------------|
------------------------|------------------------|--------------------------|
------------------------|------------------------|--------------------------|
--0--0--0---------0-1---|--0--0--0---------0-3---|--0--0--0--0--0--0--0-1---|


 E E E E E E S E.   E E E E E E S E.
--------------------------|--------------------------|
--------------------------|--------------------------|
--------------------------|--------------------------|
--0--0--0--0--0--0--0-5---|--0--0--0--0--0--0--0-1---|


 E E E E E E S E.   E E E E E E S E.
--------------------------|--------------------------|
--------------------------|--------------------------|
--------------------------|--------------------------|
--0--0--0--0--0--0--0-3---|--0--0--0--0--0--0--0-1---|

 E E E E E E S E.   E E E E E E S E.
--------------------------|--------------------------|
--------------------------|--------------------------|
--------------------------|--------------------------|
--0--0--0--0--0--0--0-5---|--0--0--0--0--0--0--0-1---|


 E E E E E E S E.   E E E E E E S E.
--------------------------|--------------------------|
--------------------------|--------------------------|
--------------------------|--------------------------|
--0--0--0--0--0--0--0-3---|--0--0--0--0--0--0--0-1---|


 E E E E E E S E.   E E E E E E S E.
--------------------------|--------------------------|
--------------------------|--------------------------|
--------------------------|--------------------------|
--0--0--0--0--0--0--0-5---|--0--0--0--0--0--0--0-1---|


 E E E E E E S E.   E E E E E E S E.
--------------------------|--------------------------|
--------------------------|--------------------------|
--------------------------|--------------------------|
--0--0--0--0--0--0--0-3---|--0--0--0--0--0--0--0-1---|


 E E E E E E S E.   E E E E E E S E.
--------------------------|--------------------------|
--------------------------|--------------------------|
--------------------------|--------------------------|
--0--0--0--0--0--0--0-5---|--0--0--0--0--0--0--0-1---|


 E E E E E E S E.   E E E E E E E E
--------------------------|--------------------------|
--------------------------|--------------------------|
--------------------------|--------------------------|
--0--0--0--0--0--0--0-3---|--0--0--0--0--0--0--0--0--|


 E E E E E E E E   E E E E E E E E
--------------------------|--------------------------|
--------------------------|--------------------------|
--------------------------|--------------------------|
--2--2--2--2--2--2--2--2--|--3--3--3--3--3--3--3--3--|


 E E E E E E E E   E E E E E E E E
--------------------------|--------------------------|
--------------------------|--------------------------|
--------------------------|--------------------------|
--5--5--5--3--3--3--2--2--|--0--0--0--0--0--0--0--0--|


 E E E E E E E E   E E E E E E E E
--------------------------|--------------------------|
--------------------------|--------------------------|
--------------------------|--------------------------|
--2--2--2--2--2--2--2--2--|--3--3--3--3--3--3--3--3--|


 E E E E E E E E   E E E E E E E E
--------------------------|--------------------------|
--------------------------|--------------------------|
--------------------------|--------------------------|
--7--7--7--7--7--7--7--7--|--0--0--0--0--0--0--0--0--|


 E E E E E E E E   E E E E E E E E
--------------------------|--------------------------|
--------------------------|--------------------------|
--------------------------|--------------------------|
--2--2--2--2--2--2--2--2--|--3--3--3--3--3--3--3--3--|


 E E E E E E E E   E E E E E E E E
--------------------------|--------------------------|
--------------------------|--------------------------|
--------------------------|--------------------------|
--5--5--5--3--3--3--2--2--|--0--0--0--0--0--0--0--0--|


 E E E E E E E E   E E E E E E E E
--------------------------|--------------------------|
--------------------------|--------------------------|
--------------------------|--------------------------|
--2--2--2--2--2--2--2--2--|--3--3--3--3--3--3--3--3--|


 E E E E E E E E   E E E Q.   S E.   E E E Q.   S E.
--------------------------|------------------------|------------------------|
--------------------------|------------------------|------------------------|
--------------------------|------------------------|------------------------|
--7--7--7--7--7--7--7--7--|--0--0--0---------0-1---|--0--0--0---------0-3---|


 E E E Q.   S E.   E E E H    E   E E E E E E S E.
------------------------|-----------------------|--------------------------|
------------------------|-----------------------|--------------------------|
------------------------|-----------------------|--------------------------|
--0--0--0---------0-1---|--0--0--0--------------|--0--0--0--0--0--0--0-1---|


 E E E E E E S E.   E E E E E E S E.
--------------------------|--------------------------|
--------------------------|--------------------------|
--------------------------|--------------------------|
--0--0--0--0--0--0--0-5---|--0--0--0--0--0--0--0-1---|


 E E E E E E S E.   E E E E E E S E.
--------------------------|--------------------------|
--------------------------|--------------------------|
--------------------------|--------------------------|
--0--0--0--0--0--0--0-3---|--0--0--0--0--0--0--0-1---|


 E E E E E E S E.   E E E E E E S E.
--------------------------|--------------------------|
--------------------------|--------------------------|
--------------------------|--------------------------|
--0--0--0--0--0--0--0-5---|--0--0--0--0--0--0--0-1---|


 E E E E E E S E.   E E E E E E S E.
--------------------------|--------------------------|
--------------------------|--------------------------|
--------------------------|--------------------------|
--0--0--0--0--0--0--0-3---|--0--0--0--0--0--0--0-1---|


 E E E E E E S E.   E E E E E E S E.
--------------------------|--------------------------|
--------------------------|--------------------------|
--------------------------|--------------------------|
--0--0--0--0--0--0--0-5---|--0--0--0--0--0--0--0-1---|


 E E E E E E S E.   E E E E E E S E.
--------------------------|--------------------------|
--------------------------|--------------------------|
--------------------------|--------------------------|
--0--0--0--0--0--0--0-3---|--0--0--0--0--0--0--0-1---|


 E E E E E E S E.   E E E E E E S E.
--------------------------|--------------------------|
--------------------------|--------------------------|
--------------------------|--------------------------|
--0--0--0--0--0--0--0-5---|--0--0--0--0--0--0--0-1---|


 E E E E E E S E.   E E E E E E E E
--------------------------|--------------------------|
--------------------------|--------------------------|
--------------------------|--------------------------|
--0--0--0--0--0--0--0-3---|--0--0--0--0--0--0--0--0--|


 E E E E E E E E   E E E E E E E E
--------------------------|--------------------------|
--------------------------|--------------------------|
--------------------------|--------------------------|
--2--2--2--2--2--2--2--2--|--3--3--3--3--3--3--3--3--|


 E E E E E E E E   E E E E E E E E
--------------------------|--------------------------|
--------------------------|--------------------------|
--------------------------|--------------------------|
--5--5--5--3--3--3--2--2--|--0--0--0--0--0--0--0--0--|


 E E E E E E E E   E E E E E E E E
--------------------------|--------------------------|
--------------------------|--------------------------|
--------------------------|--------------------------|
--2--2--2--2--2--2--2--2--|--3--3--3--3--3--3--3--3--|


 E E E E E E E E   E E E E E E E E
--------------------------|--------------------------|
--------------------------|--------------------------|
--------------------------|--------------------------|
--7--7--7--7--7--7--7--7--|--0--0--0--0--0--0--0--0--|


 E E E E E E E E   E E E E E E E E
--------------------------|--------------------------|
--------------------------|--------------------------|
--------------------------|--------------------------|
--2--2--2--2--2--2--2--2--|--3--3--3--3--3--3--3--3--|


 E E E E E E E E   E E E E E E E E
--------------------------|--------------------------|
--------------------------|--------------------------|
--------------------------|--------------------------|
--5--5--5--3--3--3--2--2--|--0--0--0--0--0--0--0--0--|


 E E E E E E E E   E E E E E E E E
--------------------------|--------------------------|
--------------------------|--------------------------|
--------------------------|--------------------------|
--2--2--2--2--2--2--2--2--|--3--3--3--3--3--3--3--3--|


 E E E E E E E E   E E E E E E Q    E E E E E E Q
--------------------------|-------------------------|-------------------------|
--------------------------|-------------------------|-------------------------|
--------------------------|--------2--------0--2----|--------5--------2--5----|
--7--7--7--7--7--7--7--7--|--0--0-----0--0----------|--0--0-----0--0----------|


 E E E E E E Q    E E  E E E E E E   E E E E E E Q
-------------------------|---------------------------|-------------------------|
-------------------------|---------------------------|-------------------------|
--------7--------5--7----|--------10--------9--7--9--|--------2--------0--2----|
--0--0-----0--0----------|--0--0------0--0-----------|--0--0-----0--0----------|


 E E E E E E Q    E E E E E E Q    E E  E E E E E E
-------------------------|-------------------------|---------------------------|
-------------------------|-------------------------|---------------------------|
--------5--------2--5----|--------7--------5--7----|--------10--------9--7--9--|
--0--0-----0--0----------|--0--0-----0--0----------|--0--0------0--0-----------|


 E E E E E E Q    E E E E E E Q    E E E E E E Q
-------------------------|-------------------------|-------------------------|
-------------------------|-------------------------|-------------------------|
--------2--------0--2----|--------5--------2--5----|--------7--------5--7----|
--0--0-----0--0----------|--0--0-----0--0----------|--0--0-----0--0----------|


 E E  E E E E E E   E E E E E E Q    E E E E E E Q
---------------------------|-------------------------|-------------------------|
---------------------------|-------------------------|-------------------------|
--------10--------9--7--9--|--------2--------0--2----|--------5--------2--5----|
--0--0------0--0-----------|--0--0-----0--0----------|--0--0-----0--0----------|


 E E E E E E Q    E  E  E  E  E E E E
-------------------------|-------------------------------|
-------------------------|-------------------------------|
--------7--------5--7----|--10--10--10--10--10--9--7--9--|
--0--0-----0--0----------|-------------------------------|


 E E E E E E E E   E E E E E E E E
--------------------------|--------------------------|
--------------------------|--------------------------|
--1-----0--0--0--0--0--0--|--1-----0-----0--1--0--3--|
-----0--------------------|-----0-----0--------------|


                     |----3----|
 E E E E E E E E   E E E E Q  Q  Q
--------------------------|-----------------------------|
--------------------------|-----------------------------|
--1-----0--0--0--0--0--0--|--1-----0-----3----3----3----|
-----0--------------------|-----0-----0-----------------|


 E E E E E E E E   E E E E E E E E
--------------------------|--------------------------|
--------------------------|--------------------------|
--1-----0--0--0--0--0--0--|--1-----0-----0--1--0--3--|
-----0--------------------|-----0-----0--------------|


                     |----3----|
 E E E E E E E E   E E E E Q  Q  Q
--------------------------|-----------------------------|
--------------------------|-----------------------------|
--1-----0--0--0--0--0--0--|--1-----0-----3----2----5----|
-----0--------------------|-----0-----0-----------------|


 E E E E E E E E   E E E E E E E E
--------------------------|--------------------------|
--------------------------|--------------------------|
--3-----2--2--2--2--2--2--|--3-----2-----2--3--2--5--|
-----0--------------------|-----0-----0--------------|


                     |----3----|
 E E E E E E E E   E E E E Q  Q  Q
--------------------------|-----------------------------|
--------------------------|-----------------------------|
--3-----2--2--2--2--2--2--|--3-----2-----5----5----5----|
-----0--------------------|-----0-----0-----------------|


 E E E E E E E E   E E E E E E E E
--------------------------|--------------------------|
--------------------------|--------------------------|
--3-----2--2--2--2--2--2--|--3-----2-----2--3--2--5--|
-----0--------------------|-----0-----0--------------|


               |----3----|  |----3----|
 E E E E E E E E   Q  Q  Q  Q  Q  Q
--------------------------|--------------------------------|
--------------------------|--------------------------------|
--3-----2--2--2--2--2--2--|-----------------5----3----8----|
-----0--------------------|--3----3----2-------------------|


 E E E E E E E E   E E E E E E E E
--------------------------|--------------------------|
--------------------------|--------------------------|
--------------------------|--------------------------|
--0--0--0--0--0--0--0--0--|--2--2--2--2--2--2--2--2--|


 E E E E E E E E   E E E E E E E E
--------------------------|--------------------------|
--------------------------|--------------------------|
--------------------------|--------------------------|
--3--3--3--3--3--3--3--3--|--5--5--5--3--3--3--2--2--|


 E E E E E E E E   E E E E E E E E
--------------------------|--------------------------|
--------------------------|--------------------------|
--------------------------|--------------------------|
--0--0--0--0--0--0--0--0--|--2--2--2--2--2--2--2--2--|


 E E E E E E E E   E E E E E E E E
--------------------------|--------------------------|
--------------------------|--------------------------|
--------------------------|--------------------------|
--3--3--3--3--3--3--3--3--|--7--7--7--7--7--7--7--7--|


 E E E E E E E E   E E E E E E E E
--------------------------|--------------------------|
--------------------------|--------------------------|
--------------------------|--------------------------|
--0--0--0--0--0--0--0--0--|--2--2--2--2--2--2--2--2--|


 E E E E E E E E   E E E E E E E E
--------------------------|--------------------------|
--------------------------|--------------------------|
--------------------------|--------------------------|
--3--3--3--3--3--3--3--3--|--5--5--5--3--3--3--2--2--|


 E E E E E E E E   E E E E E E E E
--------------------------|--------------------------|
--------------------------|--------------------------|
--------------------------|--------------------------|
--0--0--0--0--0--0--0--0--|--2--2--2--2--2--2--2--2--|


 E E E E E E E E   E E E E E E E E
--------------------------|--------------------------|
--------------------------|--------------------------|
--------------------------|--------------------------|
--3--3--3--3--3--3--3--3--|--7--7--7--7--7--7--7--7--|


 S S E E S S E E S E.   S S E E S S E E S E.
------------------------------|------------------------------|
------------------------------|------------------------------|
--5h-7-------5h-7-------------|--5h-7-------5h-7-------------|
-------0--0-------0--0--0-1---|-------0--0-------0--0--0-3---|


 S S E E S S E E S E.   S S E E S S E E S E.
------------------------------|------------------------------|
------------------------------|------------------------------|
--5h-7-------5h-7-------------|--5h-7-------5h-7-------------|
-------0--0-------0--0--0-1---|-------0--0-------0--0--0-5---|


 S S E E S S E E S E.   S S E E S S E E S E.
------------------------------|------------------------------|
------------------------------|------------------------------|
--5h-7-------5h-7-------------|--5h-7-------5h-7-------------|
-------0--0-------0--0--0-1---|-------0--0-------0--0--0-3---|


 S S E E S S E E S E.   S S E E S S E E S E.
------------------------------|------------------------------|
------------------------------|------------------------------|
--5h-7-------5h-7-------------|--5h-7-------5h-7-------------|
-------0--0-------0--0--0-1---|-------0--0-------0--0--0-3---|


 S S E E S S E E E E   S S E E S S E E E E
------------------------------|------------------------------|
------------------------------|------------------------------|
--5h-7-------5h-7-------------|--5h-7-------5h-7-------------|
-------0--0-------0--0--0--0--|-------0--0-------0--0--0--0--|


 S S E E S S E E E E   S S E E S S E E Q
------------------------------|-----------------------------|
------------------------------|-----------------------------|
--5h-7-------5h-7-------------|--5h-7-------5h-7------------|
-------0--0-------0--0--0--0--|-------0--0-------0--0--8----|


 S S E E S S E E E E   S S E E S S E E E E
------------------------------|------------------------------|
------------------------------|------------------------------|
--5h-7-------5h-7-------------|--5h-7-------5h-7-------------|
-------0--0-------0--0--0--0--|-------0--0-------0--0--0--0--|


 S S E E S S E E E E   S S E E S S E E Q
------------------------------|-----------------------------|
------------------------------|-----------------------------|
--5h-7-------5h-7-------------|--5h-7-------5h-7------------|
-------0--0-------0--0--0--0--|-------0--0-------0--0--8----|


 E E E Q.   S E.   E E E H    E
------------------------|-----------------------||
------------------------|-----------------------||
------------------------|-----------------------||
--0--0--0---------0-1---|--0--0--0--------------||



Duration Legend
---------------
W - whole
H - half
Q - quarter
E - 8th
S - 16th
T - 32nd
X - 64th
. - note dotted

Almost there ...

Sign in to get your own page with links to favourite songs and more. You are just one click away...

Login with Facebook Login with Google