Guitar Tabs Explorer
Megadeth bass tabs for 1000 times goodbye

1000 Times Goodbye bass tab


Be the first to rate

1000 Times Goodbye bass tab by Megadeth

Bass tabs

Print

Tuning: E Standard

h: Hammer-On
p: Pull-Off
\: Slide Down
(): Ghost Note

Intro 1A 7x
G: |-------------------------------|
D: |-------------------------------|
A: |-------------------------------|
E: |0-0-0-0-1-1-1-1-0-0-0-0-4-3-2-1|

On 8th time play this
G: |-------------------------------|
D: |-----------------------h5------|
A: |-------------------------------|
E: |0-0-0-0-1-1-1-1-0-0-5h6---6-5/3|

Intro 1B 3x (Play first riff 3 times, then second riff 1 time)
G: |-------------------------------|
D: |-------------------------------|
A: |-------------------------------|
E: |0-0-0-0-1-1-1-1-0-0-0-0-4-3-2-1|

G: |-------------------------------|
D: |-----------------------h5------|
A: |-------------------------------|
E: |0-0-0-0-1-1-1-1-0-0-5h6---6-5\3|

Verse 4x
G: |-------------------------------|
D: |-------------------------------|
A: |----5h7-----5h7----------------|
E: |0-0-----0-0-----0-0-0-0-0-0-0-0|

G: |-------------------------------|
D: |-----------------------h5------|
A: |----5h7-----8p7----------------|
E: |0-0-----0-0-----0-0-5h6---6-5\3|

Pre-Chorus 4x
G: |----------------------------|
D: |----------------------------|
A: |------2-------3-------------|
E: |2-2-2---2-2-2---2-2-2-0--1-2|

Solo 1A 3x
G: |------------------------------|
D: |------------------------------|
A: |--------7h8p7----------5------|
E: |0-0-0-0-------5--5-6-7---7-6-5|

Solo 1B 1x
G: |---------------------------------------------|
D: |---------------------------------------------|
A: |--------7h8p7----------5--------------5------|
E: |0-0-0-0-------5--5-6-7---7-6-5--5-6-7---7-6-5|

Chorus 1A 1x
G: |---------------------------------------------------------------------------------------------|
D: |---------------------------------------------------------------------------------------------|
A: |------------------------------3-3-3-3-3-3-3-3-3-3-3-3-3-3-3-3\1-1-1-1-1-1-1-1-1-1-1-1-1-1-1-1|
E: |0-0-0-0-0-0-0-0-0-0-0-0-0-0-0----------------------------------------------------------------|

Chorus 1A Ending
G: |--------------------|
D: |--------------------|
A: |--------------------|
E: |2-2-2-0/3--2-2-2-0/3|

Chorus 1B 1x
G: |---------------------------------------------------------------------------------------------|
D: |---------------------------------------------------------------------------------------------|
A: |------------------------------3-3-3-3-3-3-3-3-3-3-3-3-3-3-3-3\1-1-1-1-1-1-1-1-1-1-1-1-1-1-1-1|
E: |0-0-0-0-0-0-0-0-0-0-0-0-0-0-0----------------------------------------------------------------|

Chorus 1B Ending
G: |------------------------------------------|
D: |------------------------------------------|
A: |------------------------------------------|
E: |2-2-2-0/3--2-2-2-0/3--2-2-2-0/3--2-2-2-0/3|

Verse 4x

Pre-Chorus 4x

Solo 4x

Chorus 1A 1x
Chorus 1B 1x

Chorus 2A 1x
G: |---------------------------------------------------------------|
D: |9-----------7-----------5------10-----------7-----------5------|
A: |--5-6-7-5-7---5-6-7-5-7---5-6-5---5-6-7-5-7---5-6-7-5-7---5-6-5|
E: |---------------------------------------------------------------|

G: |------------------------------------------------------|
D: |9-----------7-----------5-----------------------------|
A: |--5-6-7-5-7---5-6-7-5-7---5-6-5--7-7-7-5/8--7-7-7-5/10|
E: |------------------------------------------------------|

Chorus 2B 1x
G: |---------------------------------------------------------------|
D: |9-----------7-----------5------10-----------7-----------5------|
A: |--5-6-7-5-7---5-6-7-5-7---5-6-5---5-6-7-5-7---5-6-7-5-7---5-6-5|
E: |---------------------------------------------------------------|

G: |---------------------------------|
D: |9-----------7-----------5--------|
A: |--5-6-7-5-7---5-6-7-5-7---5-6-5--|
E: |--------------------------------0|

Bridge 2x (On first time let the 0 from Chorus 2B ring)
G: |-------------------------------------------|
D: |-------------------------------------------|
A: |-------------------------------------------|
E: |0---(0)--2---(2)--3---(3)--5---(5)--6---(6)]

Solo 4x
G: |------------------------------------------------------------------------|
D: |------------------------------------------------------------------------|
A: |------------------------------------------------------------------------|
E: |0-000-0-000-0-000-0-000-0-000-0-000--2-222-2-222-2-222-2-222-2-222-2-222|

G: |-------------------------------------------------------------------------|
D: |-------------------------------------------------------------------------|
A: |-------------------------------------------------------------------------|
E: |3-333-3-333-3-333-3-333-3-333-3-333--5-555-5-555-5-555--6-666-6-666-6-666|

Post-Solo 1A 3x
G: |-------------|
D: |-------------|
A: |-------------|
E: |0---(0)-3-5-6|

Post-Solo 1B 1x
G: |-------------------|
D: |-------------------|
A: |-------------------|
E: |0---(0)-3-5-6-6-5-3|

Outro 1A 2x

G: |-------------------------------|
D: |-------------------------------|
A: |----5h7-----5h7----------------|
E: |0-0-----0-0-----0-0-0-0-0-0-0-0|

G: |-------------------------------|
D: |-----------------------h5------|
A: |----5h7-----8p7----------------|
E: |0-0-----0-0-----0-0-5h6---6-5\3|

G: |-------------------------------|
D: |-------------------------------|
A: |----5h7-----5h7----------------|
E: |0-0-----0-0-----0-0-0-0-0-0-0-0|

G: |------------------------|
D: |------------------------|
A: |----5h7----8p7----------|
E: |0-0----0-0-----0-0-0-3-5|

Outro 1B 3x
G: |-------------------------------|
D: |-----------------------h5------|
A: |----5h7-----8p7----------------|
E: |0-0-----0-0-----0-0-5h6---6-5\3|

G: |------------------------|
D: |------------------------|
A: |----5h7----8p7----------|
E: |0-0----0-0-----0-0-0-3-5|

Outro 1C 1x
G: |-------------------------------|
D: |-----------------------h5------|
A: |----5h7-----8p7----------------|
E: |0-0-----0-0-----0-0-5h6---6-5\3|

G: |---------------------------|
D: |---------------------------|
A: |----5h7-----8p7------------|
E: |0-0-----0-0-----3-5-6-6-5-3|

Comment this song and these bass tabs

Do you have corrections, comments on the bass tabs, thoughts about the song or a message to the author? Write them below.