Search tabs and chords

Search for song, artist or band

Log in

One click and you are in

Login with Facebook Login with Google

Why sign up and log in

Guitar Tabs Explorer
David Meece guitar tabs for We are the reason

Solo tabs

This version is played four semi-tones below the recording.

Solo:

e|-8-------8-------10-11-11-10/11-|-10-8----10-8-10/11--11-10-8-10----8-|
B|---11------11-------------------|-------------------------------------|
G|------10------10----------------|------10-----------------------------|
D|--------------------------------|-------------------------------------|
A|--------------------------------|-------------------------------------|
E|--------------------------------|-------------------------------------|

e|-8-------8-------10-10/11-10-8--|-10-8----10-8------------------------|
B|---11------11-------------------|--------------10-10/11----------8-11-|
G|------10------10----------------|------10---------------------10------|
D|--------------------------------|-------------------------------------|
A|--------------------------------|-------------------------------------|
E|--------------------------------|-------------------------------------|


************************************

| /   Slide up

Other versions of We Are The Reason

We are the reasonChords

Almost there ...

Sign in to get your own page with links to favourite songs and more. You are just one click away...

Login with Facebook Login with Google