Log in

One click and you are in

Login with Facebook Login with Google

Why sign up and log in

Guitar Tabs Explorer
Meat Puppets chords for Up on the sun

Guitar chords with lyrics

Gtr I (E A D G B E)
This is a really good song that I couldn't find a tab on so I thought I
might as well give it a try. I haven't been playing so long so the tab is
probably totally wrong, but anyway:
Play this first part about 4 times as a intro then 4 times in the verse
|-3-----------------------
|-3-----------------------
|-4-5-3-------------------   Hold on a bit on the "5" then play really fast
|-5-----5-3---------------
|-5---------5-4-3---------
|-3-----------------------

Then this 2 times then back to the first part. Do this a few times
|-5---------------|------------------|
|-5-------5-------|-------5----------|
|-6-----6---6-----|-----6---6--------|
|-7-7-7-------7---|-7-7-------7------|
|-7-------------7-|-------------7----|
|-5---------------|------------------|

Play this boring part really long,  play mostly the A chord diagramA augmentedA part then listen for
the  change to A chord diagramD MajorD then back
|------------------------------|
|-----2---2-----------3---3----|
|---2---2-----------2---2------|
|-2---------------0------------|
|------------------------------|
|------------------------------|

The "up on the sun" part is only an A chord diagramA augmentedA //// then G//// the A chord diagramA augmentedA again.
Then play the part above again
Then the "up on the sun" part
|-5--3----|
|-5--3----|
|-6--4----|
|-7--5----|
|-7--5----|
|-5--3----|

Just improvise with different arpeggio patterns in the end of the song. Try
a few different chords. I hope someone can make a tab with more of the
rhythm parts. Questions to vadarmeningenmedlivet@hotmail.com
/Ingemar Clementsson
The pen is mightier than the sword, but no match for a gun- Brian Wilson

Almost there ...

Sign in to get your own page with links to favourite songs and more. You are just one click away...

Login with Facebook Login with Google