Sweet Ammonia by Meat Puppets

Sweet Ammonia tab by Meat Puppets

Guitar tabs

Intro:
-----------------------------------|
-----------------------------------|
-----------------------------------|
--2-2---2-3-3---3-/5-5---5-3-3---3-|
--2-2---2-3-3---3-/5-5---5-3-3---3-|
--0-0---0-1-1---1-/3-3---3-1-1---1-|



-----------------------------------|
-----------------------------------|
-----------------------------------|
-----------------------------------|
--7------7\5--5-5\3--3--5/7--------|
-----------------------------------|

Verse:
-----------------------------------|
-----------------------------------|
-----------------------------------|
--2-2---2-3-3---3-/5-5---5-3-3---3-|
--2-2---2-3-3---3-/5-5---5-3-3---3-|
--0-0---0-1-1---1-/3-3---3-1-1---1-|

--------------------------------|
--------------------------------|
--------3---2-----------3---2---|
--2-2---3---2-5---2-2---3---2-5-|
--2-2---1---0-5---2-2---1---0-5-|
--0-0---------3---0-0---------3-|

Chorus: Fiddle with these chords a little

A             G
  There's a seed on the wind
A             G
  There's a rose in the seed
A            G
  On the petals of the rose
G             A
  Is the smell of sweet ammonia

Bridge:
----------------------------3----------33------|
-------------------------------3-----------3---|
------------------------5----------------------|
--2---2------3---3------5----------5-----------|
--2---2------3---3------3----------5-----------|
--0---0------1---1-----------------3-----------|

Find guitar tabs and chords

A B C D E F G H I J K L M N O P Q R S T U V W X Y Z #