Scum by Meat Puppets

Scum bass tab by Meat Puppets

Bass tabs

Tuning: Drop D (D A D G)

🎸 Intro:

G|----------------------------------------|
D|----------------------------------------|
A|--------3-------------------------------|
D|-0--3-4---4-3-0-------------------------|

G|----------------------------------------|
D|----------------------------------------|
A|--------5--3-0--------------------------|
D|-0--3-4--------3-0----------------------|


🎸 Verse 1:

G|----------------------------------------|
D|----------------------------------------|
A|----------------------------------------|
D|-0-0-3-4-0-x-x--------------------------|

G|----------------------------------------|
D|----------------------------------------|
A|-3--3-3---------------------------------|
D|----------------------------------------|


🎸 Chorus:

G|----------------------------------------|
D|----------------------------------------|
A|--------3-------------------------------|
D|-0--3-4---4-3-0-------------------------|

G|----------------------------------------|
D|----------------------------------------|
A|--------5--3-0--------------------------|
D|-0--3-4--------3-0----------------------|


🎸 Verse 2:

G|----------------------------------------|
D|----------------------------------------|
A|----------------------------------------|
D|-0-0-3-4-0-x-x--------------------------|

G|----------------------------------------|
D|----------------------------------------|
A|-3--3-3---------------------------------|
D|----------------------------------------|


🎸 Chorus:

G|----------------------------------------|
D|----------------------------------------|
A|--------3-------------------------------|
D|-0--3-4---4-3-0-------------------------|

G|----------------------------------------|
D|----------------------------------------|
A|--------5--3-0--------------------------|
D|-0--3-4--------3-0----------------------|


🎸 Bridge:

G|----------------------------------------|
D|----------------------------------------|
A|----------------------------------------|
D|-0-0-3-4-0-x-x--------------------------|

G|----------------------------------------|
D|----------------------------------------|
A|-5-5-3-3-5-5--2-3-----------------------|
D|----------------------------------------|

G|----------------------------------------|
D|----------------------------------------|
A|-5-5-3-3-5-5--0-0-3-0-------------------|
D|----------------------5-3---------------|



🎸 Verse 3:

G|----------------------------------------|
D|----------------------------------------|
A|----------------------------------------|
D|-0-0-3-4-0-x-x--------------------------|

G|----------------------------------------|
D|----------------------------------------|
A|-3--3-3---------------------------------|
D|----------------------------------------|


🎸 Outro:

G|----------------------------------------|
D|----------------------------------------|
A|--------3-------------------------------|
D|-0--3-4---4-3-0-------------------------|

G|----------------------------------------|
D|----------------------------------------|
A|--------5--3-0--------------------------|
D|-0--3-4--------3-0-0--------------------|



this is the most accurate tablature of this song

Find guitar tabs and chords

A B C D E F G H I J K L M N O P Q R S T U V W X Y Z #