Poison Arrow by Meat Puppets

Poison Arrow tab by Meat Puppets

Guitar tabs

Intro:
--------------------  -------------------
--------------------  -------------------
--2--5--2--5--2--xx-  --5-------7--------
--2--5--2--5--2--xx- x7 --5-------7--------
--0--3--0--3--0--xx-  --3-------5--------
--------------------  -------------------



Verse Riffs:
--------------------
--------------------
--4--2--4--2--4--xx-
--4--2--4--2--4--xx-
--2--0--2--0--2--xx-
--------------------

--------------------
--------------------
--2--5--2--5--2--xx-
--2--5--2--5--2--xx-
--0--3--0--3--0--xx-
--------------------

Chorus:
-------------------------------------------------
-------5h7-7-7--7-7-7-7p5------------------------
-----------------------------7--------7----------
--2--------------------------7--------7----------
--2--------------------------5--------5----------
--0----------------------------------------------

-------------------------------------------------
-------------------------------------------------
--5----5h7-7-7--7-7-7-7p5----7--------7----------
--5--------------------------7--------7----------
--3--------------------------5--------5----------
-------------------------------------------------

Bridge:
---------------------------------
---------------------------------
--2-2---5--------2-2---5---5/7\5-
--2-2---5--------2-2---5---5/7\5-
--0-0---3--------0-0---3---3/5\3-
-----------0-2-3-----------------

Modified Chorus at the end:
-------------------------------------------------
-------5h7-7-7--7-7-7-7p5------------------------
-----------------------------7--------7----------
--2--------------------------7--------7----------
--2--------------------------5--------5----------
--0----------------------------------------------

-------------------------------------------------
-------------------------------------------------
--5----5h7-7-7--7-7-7-7p5----9--------9--------7- Play this last D
--5--------------------------9--------9--------7- chord many times
--3--------------------------7--------7--------5-
-------------------------------------------------
                                -Eric

Find guitar tabs and chords

A B C D E F G H I J K L M N O P Q R S T U V W X Y Z #