Plateau by Meat Puppets

Plateau tab by Meat Puppets

Guitar tabs

Tuning: Standard (E A D G B E)

Plateau--Meat Puppets
Outro Only
My first tab, been stuck in my head. It's so soulful I had to learn it.
Standard Tuning: EADGBE

E|-------------------------------------|
B|-----2-------0--------3-------0--1---|
G|---2-------2---2----2-------0--------|
D|-2-------2--------0-------2----------|
A|-------0----------------3------------|
E|-------------------------------------|

E|--------------------------------0----|
B|-----2-------0--------0-------1------|
G|---2-------2---2----2---2---2--------|
D|-2-------2--------3-------0----------|
A|-------0-----------------------------|
E|-------------------------------------|

Other versions of Plateau

Alternative guitar chords and tabs for Plateau by Meat Puppets

Find guitar tabs and chords

A B C D E F G H I J K L M N O P Q R S T U V W X Y Z #