Out My Way by Meat Puppets

Out My Way chords by Meat Puppets

Guitar chords with lyrics

-------------------------------------------------------------------------------
               Out My Way - Meat Puppets
-------------------------------------------------------------------------------
Tabbed by: josh st. louis

E-mail: pukeandpiss4@gmail.com

Tuning: standard

[Intro]

e|---------0---0-0-0--0-------------0-0-0-0--0-0--|
B|-----5-5-0---2-2-2--0--------5-5--0-2-2-2--0-0--|
G|-2/4-----1---2-2-2--1---2/4-------1-2-2-2--1-1--|
D|---------2---2-2-2--2-------------2-2-2-2--2-2--|
A|---------2---0-0-0--2-------------2-0-0-0--2-2--|
E|---------0----------0-------------0--------0-0--|

e|---------0-0-0-0--0-0---------------0-0-0--0--|
B|-----5-5-0-2-2-2--0-0----------5-2--2-2-2--0--|
G|-2/4-----1-2-2-2--1-1------4-2------2-2-2--1--|
D|---------2-2-2-2--2-2---------------2-2-2--2--|
A|---------2-0-0-0--2-2---------------0-0-0--2--|
E|---------0--------0-0----------------------0--|

repeat, then:

e|--------|
B|--------|
G|---9--7-|
D|---9--7-|
A|---7--5-|
E|--------|


[Verse 1]

A E D   A E D   E E D  E E D
Out    my    way
A E D   A E D   E E D  E E E
Days   turn  days
D E E  D E D   A E D  A E D
Days   in    grace
B    D E D   A E D  A E D
Out   my    way

A E D   A E D   E E D  E E D
Blue   hands  face
A E D   A E D   E E D  E E E
Good   night's lace
D E E  D E D   A E D  A E D
Out   in    storms
B    D E D   A E D  A E D
Lights  embrace

[Instrumental]
A E D  A E D


[Chorus]

  B A    B
e|--------------|
b|--------------|
G|--------------|
D|-9/7-7-x-x-9--|
A|-9/7-7-x-x-9--|
E|-7/5-5-x-x-7--|

B A B  B A B  B A B  B A B
out   my    way
B A B  B A B  B A B  B A B
out   my    way


[Intro]

e|---------0---0-0-0--0-------------0-0-0-0--0-0--|
B|-----5-5-0---2-2-2--0--------5-5--0-2-2-2--0-0--|
G|-2/4-----1---2-2-2--1---2/4-------1-2-2-2--1-1--|
D|---------2---2-2-2--2-------------2-2-2-2--2-2--|
A|---------2---0-0-0--2-------------2-0-0-0--2-2--|
E|---------0----------0-------------0--------0-0--|

e|---------0-0-0-0--0-0---------------0-0-0--0--|
B|-----5-5-0-2-2-2--0-0----------5-2--2-2-2--0--|
G|-2/4-----1-2-2-2--1-1------4-2------2-2-2--1--|
D|---------2-2-2-2--2-2---------------2-2-2--2--|
A|---------2-0-0-0--2-2---------------0-0-0--2--|
E|---------0--------0-0----------------------0--|

repeat, then:

e|--------|
B|--------|
G|---9--7-|
D|---9--7-|
A|---7--5-|
E|--------|

[Verse 2]

A E D   A E D   E E D  E E D
Down    in     its    cave
A E D   A E D   E E D  E E E
My     heart    lays
D E E  D E D   A E D  A E D
Its    own     sun
B    D E D   A E D  A E D
Lights   the    day

[Instrumental]
A E D  A E D


[Chorus]

B A B  B A B  B A B  B A B
out   my    way
B A B  B A B  B A B  B A B
out   my    way

[Intro]

e|---------0---0-0-0--0-------------0-0-0-0--0-0--|
B|-----5-5-0---2-2-2--0--------5-5--0-2-2-2--0-0--|
G|-2/4-----1---2-2-2--1---2/4-------1-2-2-2--1-1--|
D|---------2---2-2-2--2-------------2-2-2-2--2-2--|
A|---------2---0-0-0--2-------------2-0-0-0--2-2--|
E|---------0----------0-------------0--------0-0--|

e|---------0-0-0-0--0-0---------------0-0-0--0--|
B|-----5-5-0-2-2-2--0-0----------5-2--2-2-2--0--|
G|-2/4-----1-2-2-2--1-1------4-2------2-2-2--1--|
D|---------2-2-2-2--2-2---------------2-2-2--2--|
A|---------2-0-0-0--2-2---------------0-0-0--2--|
E|---------0--------0-0----------------------0--|

repeat, then:

e|--------|
B|--------|
G|---9--7-|
D|---9--7-|
A|---7--5-|
E|--------|


[Solo]

(Amajor or lydian i think)


[End]

e|---------------------------|
B|-5--2---------5-2----------|
G|------4-2---------4-2------|
D|----------4-2---------4-2--|
A|---------------------------|
E|---------------------------|(several times)

e|--------------------------------|
B|-5--2---------5-2---------------|
G|------4-2----------9--7---------|
D|----------4-2------9--7--7-7----|
A|-------------------7--5--7-7----|
E|-------------------------5-5----|


I'm really unsure about the chorus despite tweaking the equalization and listening to different live
recordings (at this site http://www.wohlers.org/puppets/). If anyone has any corrections or a tab for the
solo please post them. Thanks.



************************************

| / Slide up
| x Dead note

Other versions of Out My Way

Alternative guitar chords and tabs for Out My Way by Meat Puppets

Find guitar tabs and chords

A B C D E F G H I J K L M N O P Q R S T U V W X Y Z #