Maidens Milk by Meat Puppets

Maidens Milk tab by Meat Puppets

Guitar tabs

Tuning:EADGbe



Intro
guitar:

e|-----------------------0-3---2-0-----------------------------|
b|-----------------0-2-3-----------3-------------/3--2^0-------|
G|-------------0-2---------------------------------------0-----|
D|-------0-2-4-------------------------------------------------|
A|-0-2-4-------------------------------------------------------|
E|-------------------------------------------------------------|

bass:

G|---------------0-2-0---------------------------|
D|--------0-2-4--------4-2-0---------------------|
A|-0-2-4---------------------4-------/5-4-2-0----|
E|-----------------------------------------------|


e|-----------------------0-5---3-2-0-------3-2-0-5---3-2-0-----3-2-0-|
b|-----------------0-2-3---------------------------------------------|
G|-------------0-2---------------------------------------------------|
D|-------0-2-4-------------------------------------------------------|
A|-0-2-4-------------------------------------------------------------|
E|-------------------------------------------------------------------|


G|-------------0-2-0-----------------------------------------------|
D|-------0-2-4-------4-2-0----/7-5-4-----5-4----/7-5-4----5-4------|
A|-0-2-4-------------------4---------7-------7---------7------7----|
E|-----------------------------------------------------------------|

e|----------------------------|
b|-3-----------0-3-2-0---0----|
G|---------0-2---------2------|
D|---0-2-4--------------------|
A|----------------------------|
E|----------------------------|


G|-7--------------4-7-6-4---4----|
D|-----------5-7----------7------|
A|----5-7-9----------------------|
E|-------------------------------|



e|-----0---0-------0---0---
b|-----3---3-------3---3---
G|-----2---2-------2---2---
D|-0-----------------------
A|-------------0-----------
E|-------------------------



G|------------------------|
D|-0-----0-----0----0-----|
A|----0-----0----0----0---|
E|------------------------|



 G2         F2       C   Am    G2
-10--------10--------8-------8-------8-------12--------10--------10--------
----10--------10-------8-------8-------88-------13--------10--------10----- etc
-------12--------12------10------10-------9--------14--------12--------12--
---------------------------------------------------------------------------
---------------------------------------------------------------------------
---------------------------------------------------------------------------



G|-----------------------------------------------|
D|----9h10h12-10-9h10h12-----9h10h12-10-9h10h12--|
A|-10---------------------10---------------------|
E|-----------------------------------------------|



G|--------------------------------------------------------|
D|---7h8h10-8-7h8h10---7h8h10-8-7h8h10--------------------|
A|-8-----------------8-------------------7h8h10-8-7h8h10--|
E|-------------------------------------8------------------|



G|--------------------------------------------------------------|
D|---------------------9h10h12-10-9h10h1----9h10h12-10-9h10h12--|
A|---4h5h7-5-4h5h7--10-------------------10---------------------|
E|-5------------------------------------------------------------|






Bend this note a million times:
------
------
-4----
------
------
------


for the last 20 seconds or so this is played over and over

G|-------------------------|
D|----9h10h12-10-9h10h12---|
A|-10----------------------|
E|-------------------------|




************************************

| /  slide up
| h  hammer-on


************************************

Find guitar tabs and chords

A B C D E F G H I J K L M N O P Q R S T U V W X Y Z #