Beauty by Meat Puppets

Beauty tab by Meat Puppets

Guitar tabs

-------------------------------------------------------------------------------
               beauty - meat puppets
-------------------------------------------------------------------------------
Tabbed by: joshua st.louis
E-mail: pukeandpiss4@gmail.com

Tuning: standard


intro


A     G       A       G
i know a place where the visitor always stays
A         G    A       G
beauty runs them down when they chance to cross this way

 D      A         G
through the night i hear that strain
 D       A   G
beauty's on my trail again
 D        A    G
try to run but my legs are lame
  D         A    G
through the night i hear...

A      G      A    G
out on that plane it's anybody's fault
A       G    A    G
open up your heart in pours the salt

 D      A         G
through the night i hear that strain
 D       A   G
beauty's on my trail again
 D        A    G
try to run but my legs are lame
  D         A    G
through the night i hear that strain


intro

A       G    A     G
open up your mind in pours the trash
A       G    A           G
open up your mouth and the lightning starts to flash

 D      A         G
through the night i hear that strain
 D       A   G
beauty's on my trail again
 D        A    G
try to run but my legs are lame
  D         A    G
through the night i hear that strain


solo
intro

D
through the night
D
hear the strain
D
through the night
D
feel the strain


intro:

guitar: D

(rapidly strum the open D string between each note)

e|--------------------------------------|
B|--------------------------------------|
G|--------------------------------------|
D|-00700900700700700700900700500400-----|
A|--------------------------------------|
E|--------------------------------------|


bass:

G|--------------------------|
D|--------------------------|
A|-3-5--3-5--3-5--55555555--|
E|--------------------------|

G|----------------------------------------|
D|---7-9-764----7-9-7----7-9-764-----7----|
A|-5----------5--------5----------5-------|
E|----------------------------------------|


verse:

guitar: A G

bass:

G|--------------------------------------------------2h0--------------|
D|--------------------------5-------------------0h2-----2h0-----0h2--|
A|---------------------5h7----------------------------------0h2------|
E|-5-5--3-3--5-5--5h7-----------5-5--3-3--5-5------------------------|

variation:

G|---------------------------|
D|----------------0h2-----0--|
A|--------------------0h2----|
E|-5-5--3-3--5-5-------------|


chorus:

guitar/bass: D A G

solo:

guitar: D A G

e|------------------------|
B|-7-7-7-8-7h8p7--10p9p7--|
G|------------------------|
D|------------------------|
A|------------------------|
E|------------------------|


bass:

G|-----------|
D|--------5--|
A|-5-5-------|
E|-----5-----|




************************************


| h  hammer-on
| p  pull-off

Find guitar tabs and chords

A B C D E F G H I J K L M N O P Q R S T U V W X Y Z #