Backwater by Meat Puppets

Backwater bass tab by Meat Puppets

Bass tabs

Tuning: Standard


🏷Legend:
r = rest
s = 16th note

INTRO (x2):

G |-----------------|-----------------|-----------------|-----------------|
D |-----------------|-----------------|-----------------|-----------------|
A |-----------------|-4---------------|-3---------------|-5---------------|
E |-0---------------|-----------------|-----------------|-----------------|
  1 & 2 & 3 & 4 &  1 & 2 & 3 & 4 &  1 & 2 & 3 & 4 &  1 & 2 & 3 & 4 &


VERSE 1 (x2):
      sss        sss        sss        sss
G |-----------------|-----------------|-----------------|-----------------|
D |-----------------|-----------------|-----------------|-----------------|
A |-----------------|-----------------|-3-3-r--3333-r---|-----------------|
E |-0-0-r--0000-r---|-2-2-r--2222-r---|-----------------|-0-0-r--0000-r---|
  1 & 2 & 3 & 4 &  1 & 2 & 3 & 4 &  1 & 2 & 3 & 4 &  1 & 2 & 3 & 4 &


CHORUS 1 (x2):

G |-----------------|-----------------|-----------------|-----------------|
D |-----------------|-----------------|-----------------|-----------------|
A |-----------------|-4-4-r-4---------|-3-3---3-3-3-3---|-5-5---5-5-5-5---|
E |-0-0-r-0---------|-----------------|-----------------|-----------------|
  1 & 2 & 3 & 4 &  1 & 2 & 3 & 4 &  1 & 2 & 3 & 4 &  1 & 2 & 3 & 4 &


VERSE 2 (x2):
      sss        sss        sss        sss
G |-----------------|-----------------|-----------------|-----------------|
D |-----------------|-----------------|-----------------|-----------------|
A |-----------------|-----------------|-3-3-r--3333-r---|-----------------|
E |-0-0-r--0000-r---|-2-2-r--2222-r---|-----------------|-0-0-r--0000-r---|
  1 & 2 & 3 & 4 &  1 & 2 & 3 & 4 &  1 & 2 & 3 & 4 &  1 & 2 & 3 & 4 &


CHORUS 2 (x2):

G |-----------------|-----------------|-----------------|-----------------|
D |-----------------|-----------------|-----------------|-----------------|
A |-----------------|-4-4-r-4---------|-3-3---3-3-3-3---|-5-5---5-5-5-5---|
E |-0-0-r-0---------|-----------------|-----------------|-----------------|
  1 & 2 & 3 & 4 &  1 & 2 & 3 & 4 &  1 & 2 & 3 & 4 &  1 & 2 & 3 & 4 &


BRIDGE:

G |-----------------|-----------------|
D |-3-3-3-3-3-3-3-3-|-5-5-5-5-5-5-5-5-|
A |-----------------|-----------------|
E |-----------------|-----------------|
  1 & 2 & 3 & 4 &  1 & 2 & 3 & 4 &

(Repeat next staff x2):

G |-----------------|-----------------|-----------------|-----------------|
D |-----------------|-----------------|-----------------|-----------------|
A |-----------------|-----------------|-3-3-3-3-3-3-3-3-|-5-5-5-5-5-5-5-5-|
E |-5-5-5-5-5-5-5-5-|-0-0-0-0-0-0-0-0-|-----------------|-----------------|
  1 & 2 & 3 & 4 &  1 & 2 & 3 & 4 &  1 & 2 & 3 & 4 &  1 & 2 & 3 & 4 &


GUITAR SOLO 1 (x2):

G |-----------------|-----------------|-----------------|-----------------|
D |-----------------|-----------------|-----------------|-----------------|
A |-----------------|-4-4---4---------|-3-3---3---------|-5-5---5---------|
E |-0-0---0---------|-----------------|-----------------|-----------------|
  1 & 2 & 3 & 4 &  1 & 2 & 3 & 4 &  1 & 2 & 3 & 4 &  1 & 2 & 3 & 4 &


VERSE 3 (x2):
      sss        sss        sss        sss
G |-----------------|-----------------|-----------------|-----------------|
D |-----------------|-----------------|-----------------|-----------------|
A |-----------------|-----------------|-3-3-r--3333-r---|-----------------|
E |-0-0-r--0000-r---|-2-2-r--2222-r---|-----------------|-0-0-r--0000-r---|
  1 & 2 & 3 & 4 &  1 & 2 & 3 & 4 &  1 & 2 & 3 & 4 &  1 & 2 & 3 & 4 &


CHORUS 3 (x4):

G |-----------------|-----------------|-----------------|-----------------|
D |-----------------|-----------------|-----------------|-----------------|
A |-----------------|-4-4-r-4---------|-3-3---3-3-3-3---|-5-5---5-5-5-5---|
E |-0-0-r-0---------|-----------------|-----------------|-----------------|
  1 & 2 & 3 & 4 &  1 & 2 & 3 & 4 &  1 & 2 & 3 & 4 &  1 & 2 & 3 & 4 &


OUTRO (Repeat 1st staff x3):

G |-----------------|-----------------|-----------------|-----------------|
D |-----------------|-----------------|-----------------|-----------------|
A |-----------------|-4-4-r-4---------|-3-3---3-3-3-3---|-5-5---5-5-5-5---|
E |-0-0-r-0---------|-----------------|-----------------|-----------------|
  1 & 2 & 3 & 4 &  1 & 2 & 3 & 4 &  1 & 2 & 3 & 4 &  1 & 2 & 3 & 4 &

                    (Tempo slows)
G |-----------------|-----------------|-----------------|-----------------|
D |-----------------|-----------------|-----------------|-----------------|
A |-----------------|-4-4-r-4---------|-3---3-3-3-3-3-/-|-5-5-5-5-5-4-2-0-|
E |-0-0-r-0---------|-----------------|-----------------|-----------------|
  1 & 2 & 3 & 4 &  1 & 2 & 3 & 4 &  1 & 2 & 3 & 4 &  1 & 2 & 3 & 4 &

G |-----------------|
D |-----------------|
A |-----------------|
E |-0---------------|
  1 & 2 & 3 & 4 &

Find guitar tabs and chords

A B C D E F G H I J K L M N O P Q R S T U V W X Y Z #