Away by Meat Puppets

Away tab by Meat Puppets

Guitar tabs

-------------------------------------------------------------------------------
               SONG NAME - Band Name
-------------------------------------------------------------------------------
Tabbed by:joshua st.louis
based on a tab from the puppetorium and the one on this site
E-mail:

Tuning: standard


intro


D E  D E (x4)
E D (X2)

D    E  D   E
Awaay (x4)



    D  E      D   E
Below the road a dozen times now
      D   E      D   E
Within the leeway behind the sandhouse
   D   E      D  E
The fascinating book of strings
     D   E          D  E
Picks the leaves that drift down in between


E
Suns to lift up in between
D
They told some stories like you've never seen
E
Just about everything slips down in between
D
Suns to lift up in between


D    E  D   E
Away  (X4)


Verse 2
D     E     D  E
 Mine to lift up and to follow
D     E     D   E
 In the steps of fluids hollow
D     E     D   E
 Without time we pick up all the streams
D        E
 To find the leaves
D       E
 that drift down in between


E
Suns to lift up in between
D
They told some stories like you've never seen
E
Just about everything slips down in between
D
Suns to lift up in between




intro
guitar


e|-----------------------------------------------------------------------------|
B|-----------------------------------------------------------------------------|
G|-7-7-------9-----7-7-7------9-------7-7-7-----7-9-9-9-9-9------7-7-------7-9-|
D|------7-9----7-9--------7-9----7-9--------7-9-------------7-9-------7-9------|
A|-----------------------------------------------------------------------------|
E|-----------------------------------------------------------------------------|

bass
(this is played for the whole song except the chorus
and i think it's repeated a couple times then too)

G|----------------|
D|----------------|
A|------5-----7---|
E|-5-7-----7------|

(the bass follows the guitar in the chorus
 and the solo is basicly the same as the intro
 only played on the G and D strings
 then on the D and the A strings

Other versions of Away

Alternative guitar chords and tabs for Away by Meat Puppets

Find guitar tabs and chords

A B C D E F G H I J K L M N O P Q R S T U V W X Y Z #