Log in

One click and you are in

Login with Facebook Login with Google

Why sign up and log in

Guitar Tabs Explorer
Me And That Man guitar tabs for Aint much loving

Guitar tabs with lyrics

A chord diagramA minorAm key Aeolian mode, I think:


Intro:

e|---------------5--------------5---3-----------------------------------------|
B|---------------5--------------5---3-----------------------------------------|
G|---------------5--------------5---3-----------------------------------------|
D|---------------7--------------7---5-----------------------------------------|
A|---------------7--------------7---5-----2-5-2-------------------------------|
E|----3h5---3-5--5---3h5---3-5--5---3---3---------3h5-5-3-5-------------------|

e|---------------5--------------5---3-----------------------------------------|
B|---------------5--------------5---3-----------------------------------------|
G|---------------5--------------5---3-----------------------------------------|
D|---------------7--------------7---5-----------------------------------------|
A|---------------7--------------7---5-----2-5-2-------------------------------|
E|----3h5-5-3-5--5---3h5-5-3-5--5---3---3---------3h5-5-3-5-------------------|


Verse:
2x:
e|---------------5--------------5---3-----------------------------------------|
B|---------------5--------------5---3-----------------------------------------|
G|---------------5--------------5---3-----------------------------------------|
D|---------------7--------------7---5-----------------------------------------|
A|---------------7--------------7---5-----2-5-2-------------------------------|
E|----3h5-5-3-5--5---3h5-5-3-5--5---3---3---------3h5-5-3-5-------------------|

Mother I'm leaving
Mother I'm gone
It seems like in this world
There ain't much loving anymore

Mama I'm leaving
Mama I'm gone
I am looking for redemption
Like a dog without a bone

Chorus:
4x:
e|---------------------------------------------------------------------------|
B|---------------------------------------------------------------------------|
G|---------------------------------------------------------------------------|
D|--10-10-10-10-10-10-10-10-9-9-9-9-9-9-9-9-7-7-7-7-7-7-7-7-7-7-7-7-7-7-7-7--|
A|--10-10-10-10-10-10-10-10-9-9-9-9-9-9-9-9-7-7-7-7-7-7-7-7-7-7-7-7-7-7-7-7--|
E|--8--8--8--8--8--8--8--8--7-7-7-7-7-7-7-7-5-5-5-5-5-5-5-5-5-5-5-5-5-5-5-5--|

Ooooh there aint much loving anymore
Ooooh there aint much loving anymore
Ooooh there aint much loving anymore
Ooooh there aint much loving anymore


Verse:
2x:
e|---------------5--------------5---3-----------------------------------------|
B|---------------5--------------5---3-----------------------------------------|
G|---------------5--------------5---3-----------------------------------------|
D|---------------7--------------7---5-----------------------------------------|
A|---------------7--------------7---5-----2-5-2-------------------------------|
E|----3h5-5-3-5--5---3h5-5-3-5--5---3---3---------3h5-5-3-5-------------------|

Mother I'm leaving
Mama I'm gone
I must find a place to rest my spirit
Where I can sit and mourn

Mama I'm leaving
Mama I'm gone
Nothing can fix my broken soul
So I hit an empty road


Chorus:
4x:
e|---------------------------------------------------------------------------|
B|---------------------------------------------------------------------------|
G|---------------------------------------------------------------------------|
D|--10-10-10-10-10-10-10-10-9-9-9-9-9-9-9-9-7-7-7-7-7-7-7-7-7-7-7-7-7-7-7-7--|
A|--10-10-10-10-10-10-10-10-9-9-9-9-9-9-9-9-7-7-7-7-7-7-7-7-7-7-7-7-7-7-7-7--|
E|--8--8--8--8--8--8--8--8--7-7-7-7-7-7-7-7-5-5-5-5-5-5-5-5-5-5-5-5-5-5-5-5--|

Ooooh there aint much loving anymore
Ooooh there aint much loving anymore
Ooooh there aint much loving anymore
Ooooh there aint much loving anymore


Solo:
My own version:
E|-------------------------------------------------------------------------|
B|-------------------------------------------------------------------------|
G|-------------------------------------------------------------------------|
D|----------------5-----------------7-5------------------------------------|
A|----5h7-7-7-5-7---7---5h7-7-7-5-7-----7-5~----5--------------------------|
e|--------------------------------------------8----7-8-7-5~---3-5~---------|

E|-------------------------------------------------------------------------|
B|-------------------------------------------------------------------------|
G|-------------------------------------------------------------------------|
D|----------------5-----------------7-5------------------------------------|
A|----5h7-7-7-5-7---7---5h7-7-7-5-7-----7-5~----5--------------------------|
e|--------------------------------------------8----7-8-7-5~---3-5~---------|


Chorus:

4x:
e|---------------------------------------------------------------------------|
B|---------------------------------------------------------------------------|
G|---------------------------------------------------------------------------|
D|--10-10-10-10-10-10-10-10-9-9-9-9-9-9-9-9-7-7-7-7-7-7-7-7-7-7-7-7-7-7-7-7--|
A|--10-10-10-10-10-10-10-10-9-9-9-9-9-9-9-9-7-7-7-7-7-7-7-7-7-7-7-7-7-7-7-7--|
E|--8--8--8--8--8--8--8--8--7-7-7-7-7-7-7-7-5-5-5-5-5-5-5-5-5-5-5-5-5-5-5-5--|

Ooooh there aint much loving anymore
Ooooh there aint much loving anymore
Ooooh there aint much loving anymore
Ooooh there aint much loving anymore


Verse:
2x:
e|---------------5--------------5---3-----------------------------------------|
B|---------------5--------------5---3-----------------------------------------|
G|---------------5--------------5---3-----------------------------------------|
D|---------------7--------------7---5-----------------------------------------|
A|---------------7--------------7---5-----2-5-2-------------------------------|
E|----3h5-5-3-5--5---3h5-5-3-5--5---3---3---------3h5-5-3-5-------------------|

Father I'm leaving
Father I'm gone
A chord diagramA majorA billion years I've travelled
I've finally found my home

I'm gonna sing out of my darkness
Sing about my woe
I will spread the gospel
There ain't much loving anymore


Chorus:
4x:
e|---------------------------------------------------------------------------|
B|---------------------------------------------------------------------------|
G|---------------------------------------------------------------------------|
D|--10-10-10-10-10-10-10-10-9-9-9-9-9-9-9-9-7-7-7-7-7-7-7-7-7-7-7-7-7-7-7-7--|
A|--10-10-10-10-10-10-10-10-9-9-9-9-9-9-9-9-7-7-7-7-7-7-7-7-7-7-7-7-7-7-7-7--|
E|--8--8--8--8--8--8--8--8--7-7-7-7-7-7-7-7-5-5-5-5-5-5-5-5-5-5-5-5-5-5-5-5--|

Ooooh there aint much loving anymore
Ooooh there aint much loving anymore
Ooooh there aint much loving anymore
Ooooh there aint much loving anymore


Outro:
e|---------------5--------------5---3---------------------5-------------------|
B|---------------5--------------5---3---------------------5-------------------|
G|---------------5--------------5---3---------------------5-------------------|
D|---------------7--------------7---5---------------------7-------------------|
A|---------------7--------------7---5-----2-5-2-----------7-------------------|
E|----3h5-5-3-5--5---3h5-5-3-5--5---3---3---------3h5-5-3-5-------------------|


************************************

| h  Hammer-on
| ~  Vibrato

Almost there ...

Sign in to get your own page with links to favourite songs and more. You are just one click away...

Login with Facebook Login with Google